Oops, an error
Loading. Please wait.

Wasted Little Djs intro tab

version 1
version 1

Intro

Whole song

Interactive

2,431 views 1 this week
no commentswrite comment
1 2 3 4 5
2 more votes to show rating
add to favorites
×
Save as Personal and add changes to this tab that will be seen only by you. Learn more ›
×
You can save this tab as Personal to edit and correct it or add notes. All changes will be seen only by you. Learn more »
launch autoscroll
font size
0
reset
how to read this tab
guitar tuner
edit
Autoscroll
slow
fast
+/-
esc
set tempo
stop
Author
I Wrote The Chords Out This Is The Intro Tabs Quite Easy

Anyway i have the intro if you want it:

It starts with a series of quick E chords:


-777--------------------------|
-999--------------------------|
-999--------------------------|
-9999-9-9-9-9-9-9-9-9-9-9-9-9-|
-7777-7-7-7-7-7-7-7-7-7-7-7-7-|
-777--------------------------|

The bit inbetween the full E chords is actually just the Bass i think, but when you are
on your own you can fillin for it as i have done there. Btw play that twice then its
much the same but the full Echord is more frequent. Thenits something like this 
not exactly, maybe not even close who knows!):

-7-7-7-7---7---7-7-7-7--7--7-7--7-7---7--7-7--|
-9-9-9-10-10-10-9-9-9-10-9-10-9-10-10-9-9-----|
----------------------------------------------|
----------------------------------------------|
----------------------------------------------|
----------------------------------------------|

Then:

-7-7-7-7--7---7--7-7-7-7--7-7-7-7--7-7--|
-9-9-9-10-10-10-9-9-9-10-9-7-9-10-9-7---|
----------------------------------------|
----------------------------------------|
----------------------------------------|
----------------------------------------|

Finally:

-7-7-7-7---7--7--7-7-7--7--7-7--7-7--7-7-7--|
-9-9-9-10-10-10-9-9-9-10-9-10-9-10-9-7-9----|
--------------------------------------------|
--------------------------------------------|
--------------------------------------------|
--------------------------------------------|


-7--7-7-7--7--7-7-7--7---7--7---7--7--7--7---|
-10-9-7-9-10-9-7-9-10^12-12-12-12-12-12------|
---------------------------------------------|
---------------------------------------------|
---------------------------------------------|
---------------------------------------------|

            
            
Suggest correction
Creating personal tab
Creating personal tab
You can edit any tab online and save it as your Personal.

You can edit, replace or remove any tab part or add personal notes – all changes will be seen only by you.

Personal tabs can be accessed anytime from any device, even offline.
Learn more »
Give kudos to tab author, rate the tab!
1 2 3 4 5
comments
print report bad tab
guest
You may want to rate the tab now too:
select rating
Wanna post a correction for this tab? Suggest correction