Oops, an error
Loading. Please wait.

Wasted Little Djs intro tab

version 2
version 2

Intro

Whole song

Interactive

829 views 1 this week
3 commentsread comments
1 2 3 4 5
1 last vote to show rating
add to favorites
×
Save as Personal and add changes to this tab that will be seen only by you. Learn more ›
×
You can save this tab as Personal to edit and correct it or add notes. All changes will be seen only by you. Learn more »
launch autoscroll
font size
0
reset
how to read this tab
guitar tuner
edit
Autoscroll
slow
fast
+/-
esc
set tempo
stop
Author
Difficulty
e--------------------------------------------|
B|-------------------------------------------|
G|-------------------------------------------|
D|-------9----9-----9-----9----9-----9----9--|
A|-------7----7-----7-----7----7-----7----7--|
E|-------0----0-----0-----0----0-----0----0--|listen for rythm then.......

e|--------0---0---0---0---0---0---0---0---0---0---0---0---0---0---0----------|
B|------/12--12--12--10--10--10--9--9--10--9--10--9--10--10--10--10----------|
G|---------------------------------------------------------------------------|
D|---------------------------------------------------------------------------|
A|---------------------------------------------------------------------------|
E|---------------------------------------------------------------------------|

e|--------0---0---0---0---0---0---0---0---0---0---0---0---0---0---0---------|
B|------/12--12--12--10--10---9---9--10---9---9---9--10---9---9---9---------|
G|--------------------------------------------------------------------------|
D|--------------------------------------------------------------------------|
A|--------------------------------------------------------------------------|
E|--------------------------------------------------------------------------|

e|--------0---0---0---0---0---0---0---0---0---0---0---0---0---0---0---0------|
B|------/12--12--12--10--10--10---9---9--10---9--10---9--10---9---9---9------|
G|---------------------------------------------------------------------------|
D|---------------------------------------------------------------------------|
A|---------------------------------------------------------------------------|
E|---------------------------------------------------------------------------|

e|--------0---0---0---0---0---0---0---0-------------------------------------|
B|-------10---9---9---9--10---9---9---9--12--12--12--12--12--12-------------|
G|--------------------------------------------------------------------------|
D|--------------------------------------------------------------------------|
A|--------------------------------------------------------------------------|
E|--------------------------------------------------------------------------|

            
            
Suggest correction
Creating personal tab
Creating personal tab
You can edit any tab online and save it as your Personal.

You can edit, replace or remove any tab part or add personal notes – all changes will be seen only by you.

Personal tabs can be accessed anytime from any device, even offline.
Learn more »
Give kudos to tab author, rate the tab!
1 2 3 4 5
comments
print report bad tab
3 comments total.
0 reply
NoelGallagher01 10 Jan 21, 2007 12:54 PM

gd tab m8 but I wouldnt say its intermediate

0 reply
BoyHeReplaced 21 Feb 10, 2007 05:26 AM

Ha intermediate, very funny

+1 reply
beno93 277 Mar 03, 2007 03:03 AM

haha funny its not intermediate its advanced

guest
You may want to rate the tab now too:
select rating
Wanna post a correction for this tab? Suggest correction