Oops, an error
Loading. Please wait.

Wasteland tab

version 1
version 1

Whole song

6,286 views 3 this week
10 commentsread comments
1 2 3 4 5
x 4
add to favorites
×
Save as Personal and add changes to this tab that will be seen only by you. Learn more ›
×
You can save this tab as Personal to edit and correct it or add notes. All changes will be seen only by you. Learn more »
launch autoscroll
font size
0
reset
how to read this tab
guitar tuner
edit
Autoscroll
slow
fast
+/-
esc
set tempo
stop
Author
Difficulty
This is pretty correct! In fact i'm sure it's 99% right but if you think i'm wrong 
let me know. This is an amazing song which needs a good tab like the other songs on hats of 
the buskers!!!
I can't play the fast bits YET but one day i will. Enjoy!!!

iNTRO

C7	C#7	D7	D#7

rift 1                                          fast
--7-7-7-8-7-----7-7-7-8-7-----7-7-7-8-7-------7-------------|
------------10-------------8-------------10-----10-8-7-8-7--|
----------------------------------------------------------9-|
------------------------------------------------------------|
------------------------------------------------------------|
------------------------------------------------------------|

rift2                                           hold
--7-7-7-8-7-----7-7-7-8-7-----7-7-7-8-7-------7------------|
------------10-------------8-------------10----------------|
-----------------------------------------------------------|
-----------------------------------------------------------|
-----------------------------------------------------------|
-----------------------------------------------------------|


verse 1
Em                     C
This is the wasteland, we call this the wasteland,
Em                           B
Where fewer little posh boys can’t believe we treasure beer cans.
Em
Where’d you get those fans,
C
Found them at the shop man,
Em 			    B
Peculiar place to find them but they’re dedicated View fans.

Verse 2
You think it’s cynical to this home a miracle,
It’s not a miracle; we’re just so strangely typical,
Initiate in one gang, initiations tough man,
Imprisonment is on the cards,
We’re heading for the quick sand.

Chorus
Em	    D		      C          B
Sign on the brew, coz there’s nothing to do,
EM	   D	   C	     B
Nothing to do, but listen to you
    Em           D         c            B
Not listening to you my parents told me not to,
Em           D         C	    B
Listening to you my parents told me not to


interlude with rift 1


Verse 3
This is the waste land our idolistic waste land
regurgitated circle of a 7 hour shop stand
So steal a car chief, the police are off the beat thief,
They’ll find it funny when they see insurance relief,

Chorus
Sign on the brew, coz there’s nothing to do,
Nothing to do, but I listen to you,
I’m not listening to you my parents told me not to,


--7-------------7-----7-----------------------6/7------------7---|
----10-8-7-8-10--------10-8-7-8-10-8p7h8p7-------10-8-7-8-10-----|
-----------------------------------------------------------------|
-----------------------------------------------------------------|
-----------------------------------------------------------------|
-----------------------------------------------------------------|

-10-12--12-10-12----7--------------|
-----------------10---10-8-7-8-7---|
---------------------------------9-|
-----------------------------------|
-----------------------------------|
-----------------------------------|

-7---------------7--------7---7---------------7---7--|
---10-8-7-8-7------10-8-7-------10-8-7-8-7------9----|
--------------9----------------------------9---------| two bars more
-----------------------------------------------------|                     to be continued...
-----------------------------------------------------|
-----------------------------------------------------|

(same chords as chorus, Em/D/C/B)
Think you’re a hard prick, something quite sadistic,
No you weren’t sadistic when he’d done you with the brick vick,
Your land is boring, so very, very boring.
Wouldn’t dream to wonder if it’s raining or it’s snowing.


outro... Um, if you want i'll do it later. Need some lunch!!! Cheers

            
            
Suggest correction
Creating personal tab
Creating personal tab
You can edit any tab online and save it as your Personal.

You can edit, replace or remove any tab part or add personal notes – all changes will be seen only by you.

Personal tabs can be accessed anytime from any device, even offline.
Learn more »
comments
print report bad tab
10 comments total. Showing first comments.
+1 reply
McLellan 134 Apr 27, 2007 02:33 AM

Great tab mate acept the chorus is slightly wrong in my opinion, the 1st & 3rd lines use these chords,

Em, D, C, B

but the 2nd and 4th lines use the same but slightly different

Em, D, C, D

I think that sounds better but its still a great tab

0 reply
wodewick72 146 Apr 27, 2007 11:42 AM

Yeah, you're definitely right mate. cheers!!! will see if they can ammend it. Quite impressed u've rated it already! lol, fair play!!!

0 reply
petewentzboy 165 Aug 11, 2007 11:40 AM

the intro actually uses a bend so it is like:

e-7-7-7-7-7bu-5----7-7-7-7-7bu-3--7-7-7-7-7bu-5----7-6-5---5---5--7---
b----------------------------------------------------------8---8----5---

guest
You may want to rate the tab now too:
select rating
Wanna post a correction for this tab? Suggest correction