Oops, an error
Loading. Please wait.

Screaming Fist Bass

10 views 3 this week
no commentswrite comment
1 2 3 4 5
3 more votes to show rating
add to favorites
launch autoscroll
font size
0
reset
guitar tuner
×
Best way to learn
"Screaming Fist"
Autoscroll
slow
fast
+/-
esc
set tempo
stop
Author
Difficulty
[Intro]
G|---------------|---------------|---------------|---------------| (x4)
D|---------------|---------------|---------------|---------------|
A|7-7-7-7-7-7-7-7|7-7-7-7-7-7-7-7|7-7-7-7-7-7-7-7|7-7-7-7-7-7-7-7|
E|---------------|---------------|---------------|---------------|

G|---------------|---------------|
D|---------------|---------------|
A|7-7-7-7-7-7-7-7|7-7-7-7-7-7-7-7|
E|---------------|---------------|

[Verse 1]
G|---------------|---------------|---------------|---------------| (x2)
D|---------------|---------------|---------------|---------------|
A|7-7-7-7-7-7-7-7|7-7-7-7-7-7-7-7|7-7-7-7-7-7-7-7|7-7-7-7-7-7-7-7|
E|---------------|---------------|---------------|---------------|

[Chorus]
G|---------------|---------------|---------------|---------------|
D|---------------|---------------|---------------|---------------|
A|---------------|---------------|---------------|---------------|
E|7-7-7-7-7-7-7-7|7-7-7-7-7-7-7-7|7-7-7-7-7-7-7-7|7-7-7-7-7-7-7-7|

G|---------------|---------------|---------------|---------------| 
D|---------------|---------------|---------------|---------------|
A|7-7-7-7-7-7-7-7|7-7-7-7-7-7-7-7|7-7-7-7-7-7-7-7|7-7-7-7-7-7-7-7|
E|---------------|---------------|---------------|---------------|

G|---------------|---------------|---------------|---------------|
D|---------------|---------------|---------------|---------------|
A|---------------|---------------|---------------|---------------|
E|7-7-7-7-7-7-7-7|7-7-7-7-7-7-7-7|7-7-7-7-7-7-7-7|7-7-7-7-7-7-7-7|

G|---------------|---------------|---------------|---------------|
D|---------------|---------------|---------------|---------------|
A|---------------|---------------|---------------|---------------|
E|7-7-7-7-7-7-7-7|7-7-7-7-7-7-7-7|7--------------|---------------|

[Interlude]
G|---------------|---------------|---------------|---------------| 
D|---------------|---------------|---------------|---------------|
A|7-7-7-7-7-7-7-7|7-7-7-7-7-7-7-7|7-7-7-7-7-7-7-7|7-7-7-7-7-7-7-7|
E|---------------|---------------|---------------|---------------|

[Verse 2]
G|---------------|---------------|---------------|---------------| (x2)
D|---------------|---------------|---------------|---------------|
A|7-7-7-7-7-7-7-7|7-7-7-7-7-7-7-7|7-7-7-7-7-7-7-7|7-7-7-7-7-7-7-7|
E|---------------|---------------|---------------|---------------|

[Chorus]
G|---------------|---------------|---------------|---------------|
D|---------------|---------------|---------------|---------------|
A|---------------|---------------|---------------|---------------|
E|7-7-7-7-7-7-7-7|7-7-7-7-7-7-7-7|7-7-7-7-7-7-7-7|7-7-7-7-7-7-7-7|

G|---------------|---------------|---------------|---------------| 
D|---------------|---------------|---------------|---------------|
A|7-7-7-7-7-7-7-7|7-7-7-7-7-7-7-7|7-7-7-7-7-7-7-7|7-7-7-7-7-7-7-7|
E|---------------|---------------|---------------|---------------|

G|---------------|---------------|---------------|---------------|
D|---------------|---------------|---------------|---------------|
A|---------------|---------------|---------------|---------------|
E|7-7-7-7-7-7-7-7|7-7-7-7-7-7-7-7|7-7-7-7-7-7-7-7|7-7-7-7-7-7-7-7|

G|---------------|---------------|---------------|---------------|
D|---------------|---------------|---------------|---------------|
A|---------------|---------------|---------------|---------------|
E|7-7-7-7-7-7-7-7|7-7-7-7-7-7-7-7|7--------------|---------------|

[Interlude]
G|----------------|---------------|---------------|---------------| (x2)
D|----------------|---------------|---------------|---------------|
A|-7-7-7-7-7-7-7-7|7-7-7-7-7-7-7-7|7-7-7-7-7-7-7-7|7-7-7-7-7-7-7-7|
E|----------------|---------------|---------------|---------------|

[Verse 3]
G|---------------|---------------|---------------|---------------| (x2) 
D|---------------|---------------|---------------|---------------|
A|7-7-7-7-7-7-7-7|7-7-7-7-7-7-7-7|7-7-7-7-7-7-7-7|7-7-7-7-7-7-7-7|
E|---------------|---------------|---------------|---------------|

[Outro]
G|---------------|---------------|---------------|---------------|
D|---------------|---------------|---------------|---------------|
A|---------------|---------------|---------------|---------------|
E|7-7-7-7-7-7-7-7|7-7-7-7-7-7-7-7|7-7-7-7-7-7-7-7|7-7-7-7-7-7-7-7|

G|---------------|---------------|---------------|---------------| 
D|---------------|---------------|---------------|---------------|
A|7-7-7-7-7-7-7-7|7-7-7-7-7-7-7-7|7-7-7-7-7-7-7-7|7-7-7-7-7-7-7-7|
E|---------------|---------------|---------------|---------------|

G|---------------|---------------|---------------|---------------|
D|---------------|---------------|---------------|---------------|
A|---------------|---------------|---------------|---------------|
E|7-7-7-7-7-7-7-7|7-7-7-7-7-7-7-7|7-7-7-7-7-7-7-7|7-7-7-7-7-7-7-7|

G|---------------|---------------|---------------|---------------|--------------|
D|---------------|---------------|---------------|---------------|--------------|
A|---------------|---------------|---------------|---------------|7\------------|
E|7-7-7-7-7-7-7-7|7-7-7-7-7-7-7-7|7--------------|---------------|--------------|



***************************

| \ slide down

***************************
Suggest correction
Give kudos to tab author, rate the tab!
1 2 3 4 5
comments
print report bad tab
guest
You may want to rate the tab now too:
select rating
Wanna post a correction for this tab? Suggest correction