Oops, an error
Loading. Please wait.

Autumn Shade Ii tab

version 1
version 1

Whole song

3,622 views 6 this week
2 commentsread comments
1 2 3 4 5
x 3
add to favorites
×
Save as Personal and add changes to this tab that will be seen only by you. Learn more ›
×
You can save this tab as Personal to edit and correct it or add notes. All changes will be seen only by you. Learn more »
launch autoscroll
font size
0
reset
how to read this tab
guitar tuner
edit
Autoscroll
slow
fast
+/-
esc
set tempo
stop
-----------------------------------------------------------------------
The Vines - Autumn Shade 2
-----------------------------------------------------------------------
Tabbed by: Pascal M Frenette
Email: ludohvik@msn.com
Tuning : EADGBe (Standard)

That's the best I could do for the intro/verse.
But like always, just play around that...
   C       G       Em       A
e|-----0-------3-(3)---0-------0------|   
b|--------0---------------0h2-----0h1-| 
g|-----0-----------------------2------| 
d|---2—--2-----0-------2-----2---2----|
a|-3---------2---2---2---2--0---------|
e|---------3-------0------------------|

C               G           Em         A     C   
   Look through me because I am a transparent
         G             Em        A       C
Ought to know me but why even know yourself
       G            Em         A        C
I'm beginning to need all that I can't have
       G             Em             A      C G  
I'm succeeding to speak like I'm fucking mad

Em                      C G
Looking at the Autumn Shade
You are white and I am grey
Em                      C G     Em   
Looking at the Autumn Shade, oh yeah

Look through me because I am a transparent
Ought to know me but why even know yourself
I'm beginning to need all that I can't have
I'm succeeding to speak like I'm fucking mad

Looking at the Autumn Shade
You are white and I am grey
Looking at the Autumn Shade, oh yeah

C G Em A C G Em A
C          G       Em         A
Oooooh ooh ooh woo-oooooh ooh ooooh
Oooooh ooh ooh woo-oooooh ooh ooooh
Oooooh ooh ooh woo-oooooh ooh ooooh
              La   lala   la     la la
Oooooh ooh ooh woo-oooooh oooooh wooooooooooh
-----------------------------------------------------------------------

Solo over second chorus
|------------------------------------------------------|
|------------------------------------------------------|
|--9-9-9-9/12br11-9~~~~-7------------------------------|
|-------------------------10-9-7-9~-12~-9~~/10~~-9~~~~-|
|------------------------------------------------------|
|------------------------------------------------------|

|------------------------------------------------------|
|------------------------------------------------------|
|-9-9-9-9/12/14~-14-12-9~~~~-----9~~~~~~~into feedback-|
|----------------------------9br-----------------------|
|------------------------------------------------------|
|------------------------------------------------------|

            
            
Suggest correction
Creating personal tab
Creating personal tab
You can edit any tab online and save it as your Personal.

You can edit, replace or remove any tab part or add personal notes – all changes will be seen only by you.

Personal tabs can be accessed anytime from any device, even offline.
Learn more »
Give kudos to tab author, rate the tab!
1 2 3 4 5
comments
print report bad tab
2 comments total.
0 reply
skaquabat330 70 Jan 16, 2003 07:00 PM

it goes Em - C - Bb - F
then Em - C - Bb - Am

0 reply
marmite 121 Feb 18, 2005 07:00 PM

yeh, this is for autumn shade ii not the first one

guest
Wanna post a correction for this tab? Suggest correction