Oops, an error
Loading. Please wait.

Highly Evolved album tab

version 1
version 1

Album

Whole song

Interactive

5,109 views 9 this week
1 commentread comment
1 2 3 4 5
x 3
add to favorites
×
Save as Personal and add changes to this tab that will be seen only by you. Learn more ›
×
You can save this tab as Personal to edit and correct it or add notes. All changes will be seen only by you. Learn more »
launch autoscroll
font size
0
reset
how to read this tab
guitar tuner
edit
Autoscroll
slow
fast
+/-
esc
set tempo
stop
Author
Highly Evolved-The Vines


All songs in standard tuning.


1.Highly Evolved

Intro/Verse - Clean
e|-------------------------------------------------------------------|
B|-------------------------------------------------------------------|
G|-------------------------------------------------------------------|
D|---------555-------------------------------------------------------|
A|-2222222-333-555555------------------------------------------------|
E|-0000000-----333333------------------------------------------------|
 PM..................

e|-------------------------------------------------------------------|
B|-------------------------------------------------------------------|
G|-------------------------------------------------------------------|
D|-5-x-5-x-55-s-77-8-7-----------------------------------------------|
A|-5-x-5-x-55-s-77-8-7-----------------------------------------------|
E|-3-x-3-x-33-s-55-6-5-----------------------------------------------|

Solo/Interlude
e|-------------------------------------------------------------------|
B|-------------------------------------------------------------------|
G|---------4---------4-----4-----------------------------------------|
D|-----5h7---5-----5-----5---5---------------------------------------|
A|-5h7---------7-5---------------------------------------------------|
E|---------------------3---------------------------------------------|

Inro/Verse x4
Chorus x4
Intro/Verse x4
Chorus x4
Solo/Interlude x4
Chorus x4
Verse x1


2.Autumn Shade

Chords
Em(022000)
C(032010)
Bb(x133xx)
Fm(133xxx)

Em                   C
Slip into the autumn shade
                  Bb
I could sleep for days
        Fm
But I like the sun when
Em                 C
I can hear another sound
               Bb
It's along way down
Am
Keep my head up
Em                     C
Who are you to be this way
            Bb
Dreamin so insane
        Fm
But I like the sun when
Em                      C
Falling through another plain
              Bb
Never one the same
Am
Keep my head up

e|-7-7-----------------------------------------------|
B|------8-8--5-3-3~----5-3-5-3-6~---8--8fb~---6-4-4--|b
G|---------------------------------------------------|
D|---------------------------------------------------|
A|---------------------------------------------------|
E|---------------------------------------------------|

e|------------------------------------------------|
B|------------------------------------------------|
G|-5--4-4--7-4-7-9--------------------8-8--6--4---|
D|-----------------10------8-10-8~----------------|
A|---------------------10-------------------------|
E|------------------------------------------------|

e|------------------------------------------------|
B|------------------------------------------------|
G|-----------------------3~---2-0~--3-2-0-3-2-0-4-|
D|-2~--2--4/5-2~--2--4/5--------------------------|
A|------------------------------------------------|
E|------------------------------------------------|

e|------------------------------------------------|
B|------------------------------------------------|
G|----------------------3~---2-0~--3-2-0-3-2-0-4~-|
D|2~--2--4/5-2~--2--4/5---------------------------|
A|------------------------------------------------|
E|------------------------------------------------|

3.Outtathaway!


Verse and intro
x6
|---------------------------------------------|
|--2-2-x-x--0---0--2-----2---x-x-5-5-5--------|
|--2-2-x-x--0---0--2-----2---x-x-5-5-5---0----|
|--2-2-x-x--0---0--2-----2---x-x-5-5-5---0----|
|-----------x---0----------------3-3-3---0----|
|-----------3----------------------------0----|

x1
|------------1---------------------------------------|
|-0-0--------1-----0------0-------------3-3-3--0-----|
|-0-0--x-----2--0--0------0-----x--x----3-3-3--0-----|
|-0-0--x-----3--0--0------0-----x--x----3-3-3--0-----|
|-x-x--x--0--3--0--x------x-----x--x----1-1-1--0-----|
|-3-3--x--0--1--0--3------3-----x--x-----------0-----|

X1
|---------------------------------------------|
|--2-2-x-x--0---0--2-----2---x-x-5-5-5--------|
|--2-2-x-x--0---0--2-----2---x-x-5-5-5---0----|
|--2-2-x-x--0---0--2-----2---x-x-5-5-5---0----|
|-----------x---0----------------3-3-3---0----|
|-----------3----------------------------0----|

Chorus
|---------------------------------------------|
|-2-2-2-2-2-2-0/5-----5-------0----0-0--------|
|-2-2-2-2-2-2-0/5-----5---0---0----0-0-0------|
|-2-2-2-2-2-2-0/5-----5---0---0----0-0-0------|
|-0-0-0-0-0-0-0/3-----3---0---x----x-x-0------|
|-------------------------0---3----3-3-0------|

|---------------------------------------------|
|-4----4-4-4-4-4/7----7-7---5---5-5-----------|
|-4----4-4-4-4-4/7----7-7---5---5-5-x---------|
|-4----4-4-4-4-4/7----7-7---5---5-5-x---------|
|-2----2-2-2-2-2/5----5-5---3---3-3-x---------|
|---------------------------------------------|

x2
|---------------------------------------------|
|--2-2-x-x--0---0--2-----2---x-x-5-5-5--------|
|--2-2-x-x--0---0--2-----2---x-x-5-5-5---0----|
|--2-2-x-x--0---0--2-----2---x-x-5-5-5---0----|
|-----------x---0----------------3-3-3---0----|
|-----------3----------------------------0----|

x1
|------------1-----------------------------------------|
|-0-0--------1-----0------0-------------3-3-3--0-------|
|-0-0--x-----2--0--0------0-----x--x----3-3-3--0-------|
|-0-0--x-----3--0--0------0-----x--x----3-3-3--0-------|
|-x-x--x--0--3--0--x------x-----x--x----1-1-1--0-------|
|-3-3--x--0--1--0--3------3-----x--x-----------0-------|

|---------------------------------------------|
|--2-2-x-x--0---0--2-----2---x-x-5-5-5--------|
|--2-2-x-x--0---0--2-----2---x-x-5-5-5---0----|
|--2-2-x-x--0---0--2-----2---x-x-5-5-5---0----|
|-----------x---0----------------3-3-3---0----|
|-----------3----------------------------0----|

Chorus
|---------------------------------------------|
|-2-2-2-2-2-2-0/5-----5-------0----0-0--------|
|-2-2-2-2-2-2-0/5-----5---0---0----0-0-0------|
|-2-2-2-2-2-2-0/5-----5---0---0----0-0-0------|
|-0-0-0-0-0-0-0/3-----3---0---x----x-x-0------|
|-------------------------0---3----3-3-0------|

|---------------------------------------------|
|-4----4-4-4-4-4/7----7-7---5---5-5-----------|
|-4----4-4-4-4-4/7----7-7---5---5-5-x---------|
|-4----4-4-4-4-4/7----7-7---5---5-5-x---------|
|-2----2-2-2-2-2/5----5-5---3---3-3-x---------|
|---------------------------------------------|

Solo
|---------------------------------------|
|---------------------------------------|
|---------------------------------------|
|------/7--5----------------------------|
|-0-----------7—b5--3-3p0—3h5-5p0-------|
|---------------------------------------|

|--------------------------------------|
|--------------------------------------|
|--------------------------------------|
|------/7--5---------------------------|
|-0-----------7—b5--3-3p0—3h5-5p0------|
|--------------------------------------|

|--------------------------------------|
|--------------------------------------|
|--------------------------------------|
|------/7--5---------------------------|
|-------------7—b5--3-3p0—3h5-5p0------|
|--3-----------------------------------|

|--------------------------------------|
|--------------------------------------|
|--------------------------------------|
|------/7--5---------------------------|
|--0-----------7—b5--3-3p0—3h5-5p0-----|
|--------------------------------------|

|------------------------------------------------|
|------------------------------------------------|
|------7--5-----------------5--------------------|
|------7-----7--5------5-7-----7—5p0-------------|
|--0---------------5h7----------------5p0--------|
|------------------------------------------------|

|------------------------------------------------|
|------------------------------------------------|
|------7---5--7--5—b7-—b7-b7-b7----7---5---------|
|------7----------------------------------7p5----|
|--0-------------------------------------------7-|
|------------------------------------------------|

|------------------------------------|
|------------------------------------|
|--9-8-7-9-8-7-9-8-7-9-8-7-9-8-7-5---|
|------------------------------------|
|------------------------------------|
|------------------------------------|

|---------------------------------------|
|---------------------------------------|
|---------------------------------------|
|--7----7--5----------------------------|
|-------------7—b5--3-3p0—3h5-5p0---0---|
|---------------------------------------|


4.Sunshinin'

Intro/Verses

E|----------------------------------------------------------||
B|-------------3-----------------------------3--------------||
G|------4--------------4-----4--------4------------4-----4--||
D|---2------2-------2-----2--------2-----2------2-----2-----||
A|----------------------------------------------------------||
E|----------------------------------------------------------||

E|----------------------------------------------------------||
B|-------------3-----------------------------3--------------||
G|------4--------------4-----4--------4------------4-----4--||
D|---2------2-------2-----2--------2-----2------2-----2-----||
A|----------------------------------------------------------||
E|----------------------------------------------------------||

E|--------------------------------------------------------||
B|-----------------------------------------3--------------||
G|-------------0---------------------4-----------4-----4--||
D|------2--------------2-----2----2-----2-----2-----2-----||
A|---0-----0--------0-----0-------------------------------||
E|--------------------------------------------------------||

Chorus

E|--------------------------------------------------------||
B|--------------------------------------------------------||
G|--------------3------------------------3----------------||
D|------4----------4-----4--------4---------4-----4-------||
A|---4-----4----------4--------4-----4---------4----------||
E|--------------------------------------------------------||


E|----------------------------------------------------------||
B|-------------3-----------------------------3--------------||
G|------4--------------4-----4--------4------------4-----4--||
D|---2------2-------2-----2--------2-----2------2-----2-----||
A|----------------------------------------------------------||
E|----------------------------------------------------------||

E|--------------------------------------------------------||
B|--------------------------------------------------------||
G|--------------3------------------------3----------------||
D|------4----------4-----4--------4---------4-----0--2----||
A|---4-----4----------4--------4-----4---------4----------||
E|--------------------------------------------------------||

Solo

E|-----------------------------------------------------------------------||
B|------------------12---------------------------------------------------||
G|--------------12------12-----------------------------------------------||
D|--14--14--14--------------14--12--------------------12----14^---0------||
A|------------------------------------14----12---14------------------14--||
E|-----------------------------------------------------------------------||

E|-----------------------------------------------------------------------||
B|-----------------------------------------------------------------------||
G|--13---13^--13^--13^--13^--13^--13^--13^--13^--13^---12------------13--||
D|---------------------------------------------------------14--12--------||
A|-----------------------------------------------------------------------||
E|-----------------------------------------------------------------------||

E|-----------------------------------------------------------------------||
B|-----------------------------------------------------------------------||
G|--13---13^--13^--13^--13^--13^--13^--13^--13^--13^---12----------------||
D|---------------------------------------------------------14--12--------||
A|-----------------------------------------------------------------12----||
E|-----------------------------------------------------------------------||

E|--------------------------------||
B|--------------------------------||
G|--------------------------------||
D|--------------------------------||
A|--12^---12^--12--10-------------||
E|---------------------12--10-----||


5.Homesick

(Piano Intro)

 I left my home...
E|---1-1-1-1-1-1-1-1---------------------3-|
B|---1-1-1-1-1-1-1-1----1-1-1-1-1-1-1-1—-3-|
G|---2-2-2-2-2-2-2-2----0-0-0-0-0-0-0-0—-0-|
D|---3-3-3-3-3-3-3-3----2-2-2-2-2-2-2-2—-0-|
A|----------------------3-3-3-3-3-3-3-3—-2-|
E|---------------------------------------3-|

 Nothings gona save you...
E|---1-1-1-1-1-1-1-1----1-1-1-1-1-1-1-1--------------------|
B|---3-3-3-3-3-3-3-3----1-1-1-1-1-1-1-1----1-1-1-1-1-1-1-1-|
G|---2-2-2-2-2-2-2-2----2-2-2-2-2-2-2-2----0-0-0-0-0-0-0-0-|
D|----------------------3-3-3-3-3-3-3-3----2-2-2-2-2-2-2-2-|
A|-----------------------------------------3-3-3-3-3-3-3-3-|
E|---------------------------------------------------------|

 I can see the leaves of golden...
E|-----------------------------------------------------|
B|-----------------------------------------------------|
G|--------0-----------0---------0--------0-------------|
D|------2---2-------3---3-----2---2----3---3-----------|
A|----3-------3---3---------3--------3-----------------|
E|-----------------------------------------------------|

 Making time for everyone...
E|-----------------------------------------------------|
B|---------1----------1---------1---------1------------|
G|-------0----------0---------0---------0--------------|
D|-----2----------3---------2---------3----------------|
A|---3----------3---------3---------3------------------|
E|-----------------------------------------------------|

 but it really doesn't matter...
E|---1-1-1-1-1-1-1-1-1----------------------------------------|
B|---1-1-1-1-1-1-1-1-1---1-1-1-1-1-1-1-1----------------------|
G|---2-2-2-2-2-2-2-2-2---0-0-0-0-0-0-0-0----------------------|
D|---3-3-3-3-3-3-3-3-3---2-2-2-2-2-2-2-2----------------------|
A|-----------------------3-3-3-3-3-3-3-3----------------------|
E|------------------------------------------------------------|

 I'll do it till I get it right...
E|---1-1-1-1-1-1-1-1-1---3------------------------------------|
B|---3-3-3-3-3-3-3-3-3---3------------------------------------|
G|---2-2-2-2-2-2-2-2-2---0------------------------------------|
D|-----------------------0------------------------------------|
A|-----------------------2------------------------------------|
E|-----------------------3------------------------------------|

Solo
E|------------------------------------------------------------|
B|------------------------------------------------------------|
G|--5-----5-7////9-7-5-----5-7////9-7-5-----------------------|
D|----5/7--------------5/7----------------7--5--3p2h3p2h3p2---|
A|------------------------------------------------------------|
E|------------------------------------------------------------|

E|------------------------------------------------------------|
B|-------------------------------------------------------3----|
G|-------5---5-7////9-7-5---7////9p7-9b---5---2--5--2-5-------|
A|--------5/7------------5/7----------------------------------|
D|-3/5-3------------------------------------------------------|
E|------------------------------------------------------------|

E|------------------------------------------------------------|
B|-4b-4b-4b---------------------------------------------------|
G|----------------5-2p0-0-------------------------------------|
D|------------------------------------------------------------|
A|------------------------------------------------------------|
E|------------------------------------------------------------|

E|------------------------------------------------------------|
B|------------------------------------------------------------|
G|------------------------------------------------------------|
D|----------0—-2////5////3—-2h3p3p0-—3b—2--0---2b-------------|
A|------0h2----------------------------------3----3~----------|
E|--0h3-------------------------------------------------------|

E|------------------------------------------------------------|
B|------------------------------------------------------------|
G|------------------------------------------------------------|
D|---3~-------2~-------0~-------------------------------------|
A|------------------------------3~----------------------------|
E|------------------------------------------------------------|

E|------------------------------------------------------------|
B|------------------------------------------------------------|
G|------------------------------------------------------------|
D|----------0—-2////5////3—-2h3p3p0-—3b—2--0---2b-------------|
A|------0h2----------------------------------3----3~----------|
E|--0h3-------------------------------------------------------|

E|----------------------------------------------------------|
B|---1------------1----------1-------------1----------------|
G|----2---4-2------2---4-2----0---4--0------0-4-0-----------|
D|-3---3------3-3---3-----3----2------2------2---2----------|
A|-------------------------3-----------3----------3---------|
E|----------------------------------------------------------|


6.Get Free

x2
e|-------------------------------------------------------------|-------|
B|-------------------------------------------------------------|-------|
G|-------------------------------------------------------------|-55----|
D|-------------------------------------------------------------|-55-55-|
A|-3--5-5-5-5-5b-5b-5b-3-5-5-5-5-5b-5b-5b-3-5-5-5-5-5b-5b-5b-3-|-33-55-|
E|-------------------------------------------------------------|----33-|

x2
e|-x-|-x-x-x-x-x-x-x-x-|-x-x-x-x-x-x-x-x-|-x-x-x-x---------|----------|
B|---|-----------------|-----------------|-----------------|----------|
G|---|-7-7-7-7-7-7-7---|-7-7-7-7-7-7-7---|-7-7-7-7-7-7-7---|-5-5------|
D|---|-7-7-7-7-7-7-7---|-7-7-7-7-7-7-7---|-7-7-7-7-7-7-7---|-5-5--5-5-|
A|-3-|-5-5-5-5-5-5-5-3-|-5-5-5-5-5-5-5-3-|-5-5-5-5-5-5-5-3-|-3-3--5-5-|
E|---|-----------------|-----------------|-----------------|------3-3-|

x4
e|-----------------------------------|
B|-----------------------------------|
G|-5/7---5/7---5/7-------------------|
D|-5/7---5/7---5/7----5-5-5-6-6-3-3--|
A|-3/5---3/5---3/5----5-5-5-6-6-3-3--|
E|--------------------3-3-3-4-4-1-1--|

x2
e|-------------------------------------------|
B|-------------------------------------------|
G|-7--5-7-5---7--5-7-5--7--5-7-5-7b8b7-5-----|
D|-7----------7---------7----------------7-5-|
A|-5----------5---------5--------------------|
E|-------------------------------------------|

x2
e|-x-|-x-x-x-x-x-x-x-x-|-x-x-x-x-x-x-x-x-|-x-x-x-x---------|-----------|
B|---|-----------------|-----------------|-----------------|-----------|
G|---|-7-7-7-7-7-7-7---|-7-7-7-7-7-7-7---|-7-7-7-7-7-7-7---|-5-5-------|
D|---|-7-7-7-7-7-7-7---|-7-7-7-7-7-7-7---|-7-7-7-7-7-7-7---|-5-5--5-5--|
A|-3-|-5-5-5-5-5-5-5-3-|-5-5-5-5-5-5-5-3-|-5-5-5-5-5-5-5-3-|-3-3--5-5--|
E|---|-----------------|-----------------|-----------------|------3-3--|

x3
e|-----------------------------------|
B|-----------------------------------|
G|-5/7---5/7---5/7-------------------|
D|-5/7---5/7---5/7----5-5-5-6-6-3-3--|
A|-3/5---3/5---3/5----5-5-5-6-6-3-3--|
E|--------------------3-3-3-4-4-1-1--|

x1
e|-----------------------------------|
B|-----------------------------------|
G|-5/7---5/7---5/7-------------------|
D|-5/7---5/7---5/7----5-5-5-6-6-7-7--|
A|-3/5---3/5---3/5----5-5-5-6-6-7-7--|
E|--------------------3-3-3-4-4-5-5--|

x1
e|-----------------------------------------------------------------------|
B|-----------------------------------------------------------------------|
G|-----------------------------------------------------------------------|
D|-8-----6-6-8-8--5-----3-3-5-5--8-----6-6-8-8--7-----5-5-7-7------5-5-7-|
A|-8-8-8----------5-5-5----------8-8-8----------7-7-7----------7-7-------|
E|-6--------------3--------------6--------------5------------------------|

x2
e|-------------------------------------------------------------|-------|
B|-------------------------------------------------------------|-------|
G|-------------------------------------------------------------|-55----|
D|-------------------------------------------------------------|-55-55-|
A|-3--5-5-5-5-5b-5b-5b-3-5-5-5-5-5b-5b-5b-3-5-5-5-5-5b-5b-5b-3-|-33-55-|
E|-------------------------------------------------------------|----33-|

e|-----------------------------------|
B|-----------------------------------|
G|-5/7---5/7---5/7-------------------|
D|-5/7---5/7---5/7----5-5-5-6-6-3-3~-|
A|-3/5---3/5---3/5----5-5-5-6-6-3-3~-|
E|--------------------3-3-3-4-4-1-1~-|


7.Country Yard

Intro/Verse

E-------------------------------------------------------------|
B-------------------------------------------------------------|
G--------2 -------------0---0---------------------------------|
D-------2-----2----- 2--------------0----0----0-------0-------|
A------0-----0------3-----3--------2--------2-----------------|
E---------------------------------3-----3--3--------3---------|
I'm tired of feeling sick and useless

E--------------------------------------------------------------|
B--------------------------------------------------------------|
G--------2 ------------0---0-----------------------------------|
D-------2-----2----- 2--------------0----0----0------0---------|
A------0-----0------3-----3--------2--------2------------------|
E---------------------------------3-----3--3--------3----------|
then speaking every other way

E----------------------------------------------------------------|
B----------------------------------------------------------------|
G--------2 -------------0---0------------------------------------|
D-------2-----2----- 2--------------0----0---0-------0--------0--|
A------0-----0------3-----3--------2--------2--------------0h2---|
E---------------------------------3-----3--3--------3----3-------|
gluing my eyes together girl

E----------------------------------------0--|
B----------------------------------------0--|
G--------2------------2------------------0--|
D-------------------------------------------|
A------3-----3-----3------3-----------------|
E----1------1----1------1-------0-----------|
          Might be the        right escape

E-----------------------------------------------------------|
B-----------------------------------------------------------|
G--------2 ------------0---0--------------------------------|
D-------2-----2----- 2--------------0----0----0------0------|
A------0-----0------3-----3--------2---------2--------------|
E---------------------------------3-----3--3--------3-------|
There’s nothing in the secret garden


E-----------------------------------------------------------|
B-----------------------------------------------------------|
G--------2-------------0----0-------------------------------|
D-------2-----2------2--------------0----0----0------0------|
A------0-----0------3-----3--------2--------2---------------|
E---------------------------------3-----3--3--------3-------|
just images of blue and white

E------------------------------------------------------------------|
B------------------------------------------------------------------|
G--------2 ------------0---0---------------------------------------|
D-------2-----2----- 2--------------0----0----0------0-----------0-|
A------0-----0------3-----3--------2--------2----------------0h2---|
E---------------------------------3-----3--3--------3------3-------|
losing my mind forever girl

E----------------------------------------0--|
B----------------------------------------0--|
G---------2---------2--------------------0--|
D-------------------------------------------|
A-------3-----3---3-------------------------|
E----1------1----1------1-------0-----------|
Maybe the only sign

Chorus
E--------------------------------------------------2----------|
B----------2-------------5--------------3----------3----------|
G----------2-------------6--------------4----------4----------|
D-------2--------------6----------------5--------4------------|
A-----0--------------4----------------5--------2--------------|
E-----------------------------------3-------------------------|

Interlude
A  C#m   G  Bm

”aaaaaaahhhhhhhhhiiiiiii “[x4]

Chorus

Interlude x2

Single Strums
A, C, G

Chorus (Fingerpicked)

8.Factory

e|--3---3---3---3---||
B|--3---3---3---3---||
G|--4---4---4---4---||
D|------------------||
A|------------------||
E|------------------||   x6

e|--2---2---2---2---||
B|--3---3---3---3---||
G|--2---2---2---2---||
D|------------------||
A|------------------||
E|------------------||   x4

(Distortion)

e|----------------||
B|----------------||
G|----------------||
D|--5--4--3--2----||
A|--5--4--3--2----||
E|--3--2--1--0----||

Bridge

e|-------------------------------------------------------||
B|-------------------------------------------------------||
G|------------------5------------------------------------||
D|--0--2---0--2-----5-------5------7----7--5-5--7---5----||
A|--0--2---0--2-----3-------5------7----7--5-5--7---5----||
E|-----0------0-------------3------5----5--3-3--5---3----||

e|----------------------||
B|----------------------||
G|----------------------||
D|--7-----7---5-5--7----||
A|--7-----7---5-5--7----||
E|--5-----5---3-3--5----||

e|-------------------------------------------------------||
B|-------------------------------------------------------||
G|------------------5------------------------------------||
D|--0--2---0--2-----5-------5------7----7--5-5--7---5----||
A|--0--2---0--2-----3-------5------7----7--5-5--7---5----||
E|-----0------0-------------3------5----5--3-3--5---3----||

e|------------------------||
B|------------------------||
G|------------------------||
D|--7---------------------||
A|--7---------------------||
E|--5---6--5--6--5--3--0--||

Solo

e|------------------------------------------------------------------||
B|------------------------------------------------------------------||
G|--12---12-12-12--11---9-----9h11--9---7------7-------5----5/7-----||
D|------------------------------------------------9---------------7-||
A|------------------------------------------------------------------||
E|------------------------------------------------------------------||

e|------------------------------------------------------------------||
B|--------------------------------------------5----3----------------||
G|--11---11-11----9-9-9--9--7---5---5-5-4--4---------------12---12--||
D|------------------------------------------------------------------||
A|------------------------------------------------------------------||
E|------------------------------------------------------------------||

e|------------------------------------------------------------------||
B|--12---10-10-10--10--8--7-----7----5---7---7/10------7------------||
G|------------------------------------------------------------------||
D|------------------------------------------------------------------||
A|------------------------------------------------------------------||
E|------------------------------------------------------------------||

e|------------------------------------------------------------------||
B|---7--7---7/8----8--8---7---5----5h7--5------------------------5--||
G|--------------------------------------------7-----7---5---4-------||
D|------------------------------------------------------------------||
A|------------------------------------------------------------------||
E|------------------------------------------------------------------||

e|--------------------------------||
B|-----5h6p5--------3-----3^------||
G|--------------------------------||
D|--------------------------------||
A|--------------------------------||
E|--------------------------------||

e|----------------||
B|----------------||
G|----------------||
D|--5--4--3--2----||
A|--5--4--3--2----||
E|--3--2--1--0----||

e|------------------------||
B|------------------------||
G|------------------------||
D|--7---------------------||
A|--7---------------------||
E|--5---6--5--6--5--3--0--||

Outro

e|--3--3--3--3--3--3--3--3--3--3--3--3--3--3--3--3--3--3--3--3--||
B|--3--3--3--3--3--3--3--3--3--3--3--3--3--3--3--3--3--3--3--3--||
G|--4--4--4--4--4--4--4--4--3--3--3--3--3--3--3--3--3--3--3--3--||
D|--------------------------------------------------------------||
A|--------------------------------------------------------------||
E|--------------------------------------------------------------||

e|--3--||
B|--3--||
G|--4--||
D|--5--||
A|--5--||
E|--3--||

9.In the Jungle

Intro:
e|-------------------------|
B|-------------------------|
G|-------------------------|
D|-------2-0---------2-0---|
A|-----2-----2-----2-----2-|
E|-0-0---------0-0---------| x4

Verse:
e|-------------------------|
B|-------------------------|
G|-------------------------|
D|-------2-0---------2-0---|
A|-----2-----2-----2-----2-|
E|-0-0---------0-0---------| x8

Slow bit:
e|-----------------------------------------------------------|
B|-----------------------------------------------------------|
G|----------------------------------------------6-6-6--4-4-4-|
D|-----2--------------2--------------2----------7-7-7--5-5-5-|
A|---2---1-1-0------2---1-1-0------2---1-1-0----7-7-7--5-5-5-|
E|-0-----------3--0-----------3--0-----------3--5-5-5--3-3-3-| x2

Pre Chorus:
e|-----------|
B|-------0-0-|
G|-------0-0-|
D|-------2-2-|
A|-------2-2-|
E|-0-5b7-0-0-| x8

Chorus:
e|-----------------------------------------------------------|
B|-----------------------------------------------------------|
G|----------------------------------------------6-6-6--4-4-4-|
D|-----2--------------2--------------2----------7-7-7--5-5-5-|
A|---2---1-1-0------2---1-1-0------2---1-1-0----7-7-7--5-5-5-|
E|-0-----------3--0-----------3--0-----------3--5-5-5--3-3-3-| x2


Solo 1:
e|----------------------------------------------------15-15-15-12----------|
B|-(8)-(10)-12-15b17-15b17-15-12-8--------------8-10------------15b17-17-17|
G|---------------------------------6-6-6--4-4-4----------------------------|
D|---------------------------------7-7-7--5-5-5----------------------------|
A|---------------------------------7-7-7--5-5-5----------------------------|
E|---------------------------------5-5-5--3-3-3----------------------------|

e|--------------------------------------|
B|-15-12------------------------8-------|
G|-------8b9-9-9-9-7--7-9-7-9-9---9-7-9-|
D|--------------------------------------|
A|--------------------------------------|
E|--------------------------------------|

Interlude:
Strum these chords x4
First two times palm muted

F#, C, B, F#


Solo 2:
e|----------------------------------------------------|
B|----------------------------------------------------|
G|-11-11-11-11-9-9-9-11-11-11-11-9-9-9-5-5-5-5-4-4----|
D|--------------------------------------------------4-|
A|----------------------------------------------------|
E|----------------------------------------------------|

e|------------------------------------------------------|
B|------------------------------------------------------|
G|-11-11-11-11-9-9-9-11-11-11-11-12-12-14-12-11-12-11-9-|
D|------------------------------------------------------|
A|------------------------------------------------------|
E|------------------------------------------------------|

Verse:
e|-------------------------|
B|-------------------------|
G|-------------------------|
D|-------2-0---------2-0---|
A|-----2-----2-----2-----2-|
E|-0-0---------0-0---------| x8

Slow part:
e|-----------------------------------------------------------|
B|-----------------------------------------------------------|
G|----------------------------------------------6-6-6--4-4-4-|
D|-----2--------------2--------------2----------7-7-7--5-5-5-|
A|---2---1-1-0------2---1-1-0------2---1-1-0----7-7-7--5-5-5-|
E|-0-----------3--0-----------3--0-----------3--5-5-5--3-3-3-|

Pre Chorus:
e|-----------------------------------------------|
B|-------0-0--------0-0--------0-0---------------|
G|-------0-0--------0-0--------0-0--6-6-6--4-4-4-|
D|-------2-2--------2-2--------2-2--7-7-7--5-5-5-|
A|-------2-2--------2-2--------2-2--7-7-7--5-5-5-|
E|-0-5b7-0-0--0-5b7-0-0--0-5b7-0-0--5-5-5--3-3-3-| x2

Chorus:
e|-----------------------------------------------|
B|-------0-0--------0-0--------0-0---------------|
G|-------0-0--------0-0--------0-0--6-6-6--4-4-4-|
D|-------2-2--------2-2--------2-2--7-7-7--5-5-5-|
A|-------2-2--------2-2--------2-2--7-7-7--5-5-5-|
E|-0-5b7-0-0--0-5b7-0-0--0-5b7-0-0--5-5-5--3-3-3-| x2

e|-----------------------------------------------------------|
B|-----------------------------------------------------------|
G|----------------------------------------------6-6-6--4-4-4-|
D|-----2--------------2--------------2----------7-7-7--5-5-5-|
A|---2---1-1-0------2---1-1-0------2---1-1-0----7-7-7--5-5-5-|
E|-0-----------3--0-----------3--0-----------3--5-5-5--3-3-3-| x2

10.Mary Jane

Clean with chorus and delay

E|----2--------5----------0------2-----2---------------------||
B|----3--------5----------0------2-------2-----2h3p2---------||
G|----2--------0----------0------2---------2-----------2-----||
D|----0---0----------------------0---------------------------||
A|-----------------------------------------------------------||
E|-----------------------------------------------------------||

E|----2--------5----------0------2-----2---------------------||
B|----3--------5----------0------2-------2-----2h3p2---1-----||
G|----2--------0----------0------2---------2-----------------||
D|----0---0----------------------0---------------------------||
A|-----------------------------------------------------------||
E|-----------------------------------------------------------||

E|---------------------------------------------------------------||
B|----------1--------0------0-------0h1p0------------------------||
G|-------0-----0-------0------0------------0-----------0---------||
D|--0h2-----------2------2------2-------------------2-----2------||
A|---------------------------------------------0h3-----------3---||
E|---------------------------------------------------------------||

E|-------------------------||
B|-------------------------||
G|--------0----------0-----||
D|--0-------0----0h2-------||
A|-----3------3------------||
E|-------------------------||

Verse chords

    D     Am    C
E|--2---------------||
B|--3-----1-----1---||
G|--2-----2-----0---||
D|--0-----2-----2---||
A|--------------3---||
E|------------------||

Chorus

E|------------------------------------------------------------------------||
B|------------------------------------------------------------------------||
G|--7--------14--12--11----------7----14--12--11--12--11-----9--5--4^--2--||
D|------------------------------------------------------------------------||
A|------------------------------------------------------------------------||
E|------------------------------------------------------------------------||

Backing chords are: D, Am, Asus2, Am, C, Csus2, C, Csus2

E|----2--------5----------0------2-----2---------------------||
B|----3--------5----------0------2-------2-----2h3p2---------||
G|----2--------0----------0------2---------2-----------2-----||
D|----0---0----------------------0---------------------------||
A|-----------------------------------------------------------||
E|-----------------------------------------------------------||

E|----2--------5----------0------2-----2---------------------||
B|----3--------5----------0------2-------2-----2h3p2---1-----||
G|----2--------0----------0------2---------2-----------------||
D|----0---0----------------------0---------------------------||
A|-----------------------------------------------------------||
E|-----------------------------------------------------------||

E|---------------------------------------------------------------||
B|----------1--------0------0-------0h1p0------------------------||
G|-------0-----0-------0------0------------0-----------0---------||
D|--0h2-----------2------2------2-------------------2-----2------||
A|---------------------------------------------0h3-----------3---||
E|---------------------------------------------------------------||

E|-------------------------||
B|-------------------------||
G|--------0----------0-----||
D|--0-------0----0h2-------||
A|-----3------3------------||
E|-------------------------||

Outro

E|---------------------------------------------------------||
B|---------------------------------------------------------||
G|---7------------7------------7--6------------------4--5--||
D|-----------------------------------7------------7--------||
A|---------------------------------------------------------||
E|---------------------------------------------------------||

E|-----2-------2------5------3------2-----------2------2------5-------||
B|-------3-------3------3------3------3-----------3------3------3-----||
G|---------2-------2------2------2------2-----------2------2------2---||
D|--0----------------------------------------0------------------------||
A|--------------------------------------------------------------------||
E|--------------------------------------------------------------------||

E|--3-------2-------3-----3------2------2------0------0---||
B|----3-------3-------1-----1------1------1------1--------||
G|------2-------2-------2-----2------2------2------2------||
D|--------------------------------------------------------||
A|--------------------------------------------------------||
E|--------------------------------------------------------||

E|---------------------------------------------2----------||
B|-----1------1------0-----------0-------0-----3----------||
G|-------0------0------0---2-------2-----------2----------||
D|---------2------2------2---------------------0----------||
A|--3-------------------------3-------3-------------------||
E|--------------------------------------------------------||

11. Ain't No Room

Intro:

E|-------------------------------------------------------------------------|
B|-------------------------------------------------------------------------|
G|9-7-9-7-9-7-9-7-9--7-5-7-5-7-5-7-5-7-------------------------------------|
D|------------------------------------7-5-7-5-7-5-7-5-7--7-5-7-5-7-5-7-5-7-|
A|-------------------------------------------------------------------------|
E|-------------------------------------------------------------------------|

Verse:

E|------------------------------------------------------------------|
B|------------------------------------------------------------------|
G|----7---7---7---7-----------------7---7---7---7-------------------|
D|----7---7---7---7--7---7---7---7--7---7---7---7--7---7---7---7----|
A|----5---5---5---5--7---7---7---7--5---5---5---5--7---7---7---7----|
E|-------------------5---5---5---5-----------------5---5---5---5----|

Pre-Chorus:

E|-----------------------------------------------------------------------|
B|-----------------------------------------------------------------------|
G|----5--5---7--7--------------5--5---7--7-------------------------------|
D|----5--5---7--7--7--7--7--7--5--5---7--7--7--7--7--7--7-7-7-7-7-7-7----|
A|----3--3---5--5--7--7--7--7--3--3---5--5--7--7--7--7--7-7-7-7-7-7-7----|
E|-----------------5--5--5--5---------------5--5--5--5--5-5-5-5-5-5-5----|
                                                      PM. . . . . . .
Chorus 1:

E|-------------------------------------------------------------------------|
B|-------------------------------------------------------------------------|
G|---7-7-7-7--5-5-5-5-------------------7-7-7-7--5-5-5-5-------------------|
D|---7-7-7-7--5-5-5-5--7-7-7-7-7-7-7-7--7-7-7-7--5-5-5-5--7-7-7-7-7-7-7-7--|
A|---5-5-5-5--3-3-3-3--7-7-7-7-7-7-7-7--5-5-5-5--3-3-3-3--7-7-7-7-7-7-7-7--|
E|---------------------5-5-5-5-5-5-5-5--------------------5-5-5-5-5-5-5-5--|

Intro

Verse

Pre-Chorus

Chorus 2: Let Chords Ring

E|-----------------------------------------------|
B|-----------------------------------------------|
G|---7---5-------------7---5---------------------|
D|---7---5---7---7-----7---5---7-7-7-7-7-7-7-7---|
A|---5---3---7---7-----5---3---7-7-7-7-7-7-7-7---|
E|-----------5---5-------------5-5-5-5-5-5-5-5---|
                             PM. . . . . . .

12. 1969

Intro:
    D5  E5      G5
e|---------------------------------------------------------|
B|---------------------------------------------------------|
G|--7/9---9---12-12-12-------7/9---7/9----7/9-7/9-7/9-7/9--|
D|--7/9---9---12-12-12--(x3)-7/9---7/9----7/9-7/9-7/9-7/9--|
A|--5/7---7---10-10-10-------5/7---5/7----5/7-5/7-5/7-5/7--|
E|------0------------------------0-----0-------------------|
                                                           It's...
Verse 1:
       A                         G
It's nineteen sixty nine.....
  A                  C        G
I just wanna have no place.....
  A                               G
..living through the sound of ...
    A                      C          G
I'm gonna get stoned, look round at my soul.

Play Intro riff

Verse 2 (with arppegiated notes):
            A                               C
I'm hearing voices in the trees, I'm seeing....
        G                         Em
I just wanna die before I lose my.....
            A                                 C
I feel like crying in my sleep because i dont know..
        G                        Em
I just wanna live to see another day. HeyHeyHey

Chorus (x2):
   A                                C
e|-0-0-----0-----0-----0-----0------0-0-----0-----0-----0-----0------|
B|-2---2-----2-----2-----2-----2----1---1-----1-----1-----1-----1----|
G|-2-----2-----2-----2-----2-----2--0-----0-----0-----0-----0-----0--|
D|-2--------------------------------2--------------------------------|
A|-0--------------------------------3--------------------------------|
E|-------------------------------------------------------------------|
              He-e-ey hey-e-ey---------------------------------------|               He-e-ey hey hey

   G                                Em
e|-3-3-----3-----3-----3-----3------0-0-----0-----0-----0-----0------|
B|-0---0-----0-----0-----0-----0----0---0-----0-----0-----0-----0----|
G|-0-----0-----0-----0-----0-----0--0-----0-----0-----0-----0-----0--|
D|-0--------------------------------2--------------------------------|
A|-2--------------------------------2--------------------------------|
E|-3--------------------------------0--------------------------------|
              He-e-ey hey hey            He-e-ey hey hey

Verse 3:
A (no chord)         G
When I get my Bu-ick six
A                      C       G
Ill see my life drop in that whirlpool....
A                   G
If I get to see you again....
A               C     G
You're the only one I know-oooooowwhh.

Play Intro riff (x2 second time getting faster.)

Solo (over fast intro riff):
e|------------------------------------------------------|
B|--9~~-5~~-3~~-----------------------------------------|
G|---------------4--2--4b5r4--2-------------------------|
D|-------------------------------5--2--0h2--5-5b6r5--0--| (x2)
A|------------------------------------------------------|
E|------------------------------------------------------|

Breakdown:
Just bass guitar
Then after the groans, a loud E chord.
Then
    D5               E                       D
e|------------------------------------------------------|
B|-------------------9--9----9--9----9--9----7--7-------|
G|-/7-7-7-7-7-7------9----9--9----9--9----9--7----7-----|
D|-/7-7-7-7-7-7-(x4)-9-------9-------9-------7----------|
A|-/5-5-5-5-5-5------7-------7-------7-------5----------|
E|------------------------------------------------------|(over prev. riff)
                     Yeah....
E                     D(with riff)
Here I go, there I stand

E                D(with riff)
I'm a seed, of a man
(no chord)
Dare I go, Dare I stare,
                 D(with riff)
I'm a seed, of a man
E                 D(with riff)

Final ending (play each chord twice sometimes with hammer-ons in
brackets):
   E             G                 A                 F
e|---------------------------------------------------------------------|
B|-9---9(h10p9)--12----12(h13p12)--14----14(h15p14)--10----10(h11p10)--|
G|-9-9----9------12-12----12-------14-14----14-------10-10----10-------|
D|-9-------------12----------------14----------------10----------------|
A|-7-------------10----------------12----------------8-----------------|
E|---------------------------------------------------------------------|

End on E.

            
            
Suggest correction
Creating personal tab
Creating personal tab
You can edit any tab online and save it as your Personal.

You can edit, replace or remove any tab part or add personal notes – all changes will be seen only by you.

Personal tabs can be accessed anytime from any device, even offline.
Learn more »
Give kudos to tab author, rate the tab!
1 2 3 4 5
comments
print report bad tab
1 comment total.
-1 reply
JOELy BOy 10 Aug 07, 2008 12:40 PM

this album sucks but gd tab

guest
You may want to rate the tab now too:
select rating
Wanna post a correction for this tab? Suggest correction