Oops, an error
Loading. Please wait.

Ladybug chords

2,022 views 3 this week
no commentswrite comment
1 2 3 4 5
x 3
add to favorites
×
Save as Personal and add changes to this tab that will be seen only by you. Learn more ›
×
You can save this tab as Personal to edit and correct it or add notes. All changes will be seen only by you. Learn more »
launch autoscroll
font size
0
reset
transpose
0
reset
simplify chords
display chords
guitar tuner
edit
Autoscroll
slow
fast
+/-
esc
set tempo
stop
Author
Difficulty
Strumming
There is no strumming pattern for this song yet. and get +5 IQ
Song: Ladybug
Band: The Vines
Album: Wicked Nature
Year: 2014
Tabber: beranger80@hotmail.com



Intro (0:00)

   F#       A      B                   F#      A     B
e-----------------------------------|-------------------|------------------|
b-----------------------------------|-------------------|------------------|
g-----------------------------------|-------------------|------------------|
d--4-4-4-4-7-7-7-7-9-9-9-9-9-9-9-9--|--4-4-4-4-7-7-7-9--|--11-9-11-9-------|
a--4-4-4-4-7-7-7-7-9-9-9-9-9-9-9-9--|--4-4-4-4-7-7-7-9--|------------12-9--|
e--2-2-2-2-5-5-5-5-7-7-7-7-7-7-7-7--|--2-2-2-2-5-5-5-7--|------------------|
                                  x3 



Verse (0:18)

  F#7       A7       B7
e-------------------------------------|
b-------------------------------------|
g-------------------------------------|
d------2--------5--------7-------7----|
a----4---4----7---7----9---9---9---9--|
e--2--------5--------7-------7--------|

F#7  A7   B7          F#7  A7   B7
Love   what have you done to me
F#7  A7   B7        F#7    A7   B7
She came in upon a summer breeze



Chorus (0:36)

F#       A      B 
Throw it away and never know
F#           A            B 
Nothing to taste when you're alone
F#       A      B 
I got the world and I don't need
A     G
No ladybug



Post chorus (0:54)

   F#      A       B                   F#      A     B
e-----------------------------------|-------------------|------------------|
b-----------------------------------|-------------------|------------------|
g-----------------------------------|-------------------|------------------|
d--4-4-4-4-7-7-7-7-9-9-9-9-9-9-9-9--|--4-4-4-4-7-7-7-9--|--11-9-11-9-------|
a--4-4-4-4-7-7-7-7-9-9-9-9-9-9-9-9--|--4-4-4-4-7-7-7-9--|------------12-9--|
e--2-2-2-2-5-5-5-5-7-7-7-7-7-7-7-7--|--2-2-2-2-5-5-5-7--|------------------|
                                  x3 



Verse (1:12)

F#7  A7   B7      F#7  A7   B7
Home is where I wanna be
F#7  A7   B7          F#7  A7   B7
Ladybug quit crawling on my knee



Chorus (1:30)

F#       A      B 
Throw it away and never know
F#           A            B 
Nothing to taste when you're alone
F#       A      B 
I got the world and I don't need
A     G
No ladybug



Chorus (1:48)

F#       A      B 
Nothing to say nowhere to go
F#       A      B 
Stuck in a maze when you're alone
F#       A      B 
I got the world and I don't need
A     G
No ladybug



Outro (2:06)

   F#      A       B                   A               G
e-----------------------------------|-----------------------------------|
b-----------------------------------|-----------------------------------|
g-----------------------------------|-----------------------------------|
d--4-4-4-4-7-7-7-7-9-9-9-9-9-9-9-9--|--7-7-7-7-7-7-7-7-5-5-5-5-5-5-5-5--|
a--4-4-4-4-7-7-7-7-9-9-9-9-9-9-9-9--|--7-7-7-7-7-7-7-7-5-5-5-5-5-5-5-5--|
e--2-2-2-2-5-5-5-5-7-7-7-7-7-7-7-7--|--5-5-5-5-5-5-5-5-3-3-3-3-3-3-3-3--|
                                  x3

            
            
Suggest correction
Creating personal tab
Creating personal tab
You can edit any tab online and save it as your Personal.

You can edit, replace or remove any tab part or add personal notes – all changes will be seen only by you.

Personal tabs can be accessed anytime from any device, even offline.
Learn more »
Give kudos to tab author, rate the tab!
1 2 3 4 5
comments
print report bad tab
guest
You may want to rate the tab now too:
select rating
Wanna post a correction for this tab? Suggest correction