Oops, an error
Loading. Please wait.

True As The Night Tab

2,703 views 1 this week
1 commentread comment
1 2 3 4 5
please rate
add to favorites
launch autoscroll
font size
0
reset
how to read this tab
guitar tuner
Tab Pro tools
  • play this tab
  • loop segment
  • change instrument
  • show fretboard
  • metronome
×
Best way to learn
"True As The Night"
Autoscroll
slow
fast
+/-
esc
set tempo
stop
Contributor
Artist: The Vines
Song: True As The Night

|--3---0--0--|
|--3---1--0--|
|--0---0--0--| 0.00 - 0.45
|--0---2--2--|
|--2---3--2--|
|--3------0--|


|--0---3---|
|--1---3---|
|--0---0---| 0.45 - 0.56
|--2---0---|
|--3---2---|
|------3---|

|--0---3---0---0---2-|
|--1---3---3---0---3-|
|--0---0---2---0---2-|
|--2---0---0---2---0-| 0.56 - 1.06
|--3---2---0---2-----|
|------3---2---0-----|

|--3---0--0--|
|--3---1--0--|
|--0---0--0--| 1.06 - 1.28
|--0---2--2--|
|--2---3--2--|
|--3------0--|

|--0---3---|
|--1---3---|
|--0---0---| 1.28 - 1.39
|--2---0---|
|--3---2---|
|------3---|

|--0---3---0---0---2-|
|--1---3---3---0---3-|
|--0---0---2---0---2-|
|--2---0---0---2---0-| 1.39 - 1.50
|--3---2---0---2-----|
|------3---2---0-----|

|--3---0--0--|
|--3---1--0--|
|--0---0--0--| 1.50 - 2.11
|--0---2--2--|
|--2---3--2--|
|--3------0--|

|--0---3---|
|--1---3---|
|--0---0---| 2.11 - 2.22
|--2---0---|
|--3---2---|
|------3---|

|--0---3---0---0---2-|
|--1---3---3---0---3-|
|--0---0---2---0---2-|
|--2---0---0---2---0-| 2.22 - 2.33
|--3---2---0---2-----|
|------3---2---0-----|

|-0--0--0--|
|-1--0--2--|
|-0--0--2--| 2.33 - 5.32
|-2--2--2--|
|-3--2--0--|
|----0-----|
comments
We did not receive enough feedback on this tab! Please rate:
print report bad tab
1 2 3 4 5
1 comment total.
0 reply
Thomathon wrote on August 1 2008, 11:08 pm

hardly. Try some Cm's for the chorus, and there are some A chords definitely in there somewhere.

I want to post or [tab]
guest
You may want to rate the tab now too:
select rating
Please do not post tabs as comments. Select "correction" instead!