Oops, an error
Loading. Please wait.

Belahan Jiwa Tab

version 1
version 1

Whole song

Interactive

511 views 1 this week
no commentswrite comment
1 2 3 4 5
please rate
add to favorites
launch autoscroll
font size
0
reset
how to read this tab
guitar tuner
Autoscroll
slow
fast
+/-
esc
set tempo
stop
Help us to improve Ultimate-Guitar.com Take our survey!
×
Contributor
aanheroes 1,192
   Belahan Jiwa                                   


                                                                      The Virgin
Track 3



     W                   H.           Q       E  S S S S E  Q    Q     
E||-------------------|---------------1----|--1----1---1----1----1----|
B||-------------------|---------------1----|--1----1---1----1----1----|
G||-------------------|---------------2----|--2------2---2--2----2----|
D||-------------------|---------------3----|--3--3---3---3--3----3----|
A||-------------------|---------------3----|--3------3------3----3----|
E||-------------------|--------------------|--------------------------|


  E  S S S S E  Q    Q       E  S S S S E  Q    Q     
--1----1---1----1----1----|--1----1---1----1----1----|
--1----1---1----1----3----|--3----3---3----3----3----|
--2------2---2--2----2----|--2------2---2--2----2----|
--3--3---3---3--3----3----|--3--3---3---3--3----3----|
--3------3------3----5----|--5------5------5----5----|
--------------------------|--------------------------|


  E  S S S S E  Q    Q       E  S S S S E  Q    Q     
--1----1---1----1---------|--------------------------|
--3----3---3----3----3----|--3----3---3----3----3----|
--2------2---2--2----3----|--3----3---3----3----3----|
--3--3---3---3--3----3----|--3--0---0---3--3----3----|
--5------5------5----5----|--5------8---5--5----5----|
---------------------6----|--6------6------6----6----|


  E  S S S S E  Q    Q       E  S S S S E  Q    Q     
---------------------0----|--0----0---0----0----0----|
--3----3---3----3----1----|--1----1---1----1----1----|
--3----3---3----3----0----|--0------0---0--0----0----|
--3--0---0---3--3----2----|--2--2---2---2--2----2----|
--5------8---5--5----3----|--3------3------3----3----|
--6------6------6---------|--------------------------|


  E  S S S S E  Q    Q       H.           Q       E  S S S S E  Q    Q     
--0----0---0----0----0----|--L------------1----|--1----1---1----1----1----|
--1----1---1----1----1----|--L------------1----|--1----1---1----1----1----|
--0------0---0--0----0----|--L------------2----|--2------2---2--2----2----|
--2--2---2---2--2----2----|--L------------3----|--3--3---3---3--3----3----|
--3------3------3----3----|--L------------3----|--3------3------3----3----|
--------------------------|--------------------|--------------------------|


  E  S S S S E  Q    Q       E  S S S S E  Q    Q     
--1----1---1----1----1----|--1----1---1----1----1----|
--1----1---1----1----3----|--3----3---3----3----3----|
--2------2---2--2----2----|--2------2---2--2----2----|
--3--3---3---3--3----3----|--3--3---3---3--3----3----|
--3------3------3----5----|--5------5------5----5----|
--------------------------|--------------------------|


  E  S S S S E  Q    Q       E  S S S S E  Q    Q     
--1----1---1----1---------|--------------------------|
--3----3---3----3----3----|--3----3---3----3----3----|
--2------2---2--2----3----|--3----3---3----3----3----|
--3--3---3---3--3----3----|--3--0---0---3--3----3----|
--5------5------5----5----|--5------8---5--5----5----|
---------------------6----|--6------6------6----6----|


  E  S S S S E  Q    Q       E  S S S S E  Q    Q       H.           Q     
---------------------0----|--0----0---0----0----0----|--L------------1----|
--3----3---3----3----1----|--1----1---1----1----1----|--L------------1----|
--3----3---3----3----0----|--0------0---0--0----0----|--L------------2----|
--3--0---0---3--3----2----|--2--2---2---2--2----2----|--L------------3----|
--5------8---5--5----3----|--3------3------3----3----|--L------------3----|
--6------6------6---------|--------------------------|--------------------|


  E  S S S S E  Q    Q       E  S S S S E  Q    Q     
--1----1---1----1----1----|--1----1---1----1----1----|
--1----1---1----1----1----|--1----1---1----1----3----|
--2------2---2--2----2----|--2------2---2--2----2----|
--3--3---3---3--3----3----|--3--3---3---3--3----3----|
--3------3------3----3----|--3------3------3----5----|
--------------------------|--------------------------|


  E  S S S S E  Q    Q       E  S S S S E  Q    Q     
--1----1---1----1----1----|--1----1---1----1---------|
--3----3---3----3----3----|--3----3---3----3----3----|
--2------2---2--2----2----|--2------2---2--2----3----|
--3--3---3---3--3----3----|--3--3---3---3--3----3----|
--5------5------5----5----|--5------5------5----5----|
--------------------------|---------------------6----|


  E  S S S S E  Q    Q       E  S S S S E  Q    Q     
--------------------------|---------------------0----|
--3----3---3----3----3----|--3----3---3----3----1----|
--3----3---3----3----3----|--3----3---3----3----0----|
--3--0---0---3--3----3----|--3--0---0---3--3----2----|
--5------8---5--5----5----|--5------8---5--5----3----|
--6------6------6----6----|--6------6------6---------|


  E  S S S S E  Q    Q       H.           Q      
--0----0---0----0----0----|--L-----------------||
--1----1---1----1----1----|--L-----------------||
--0------0---0--0----0----|--L-----------------||
--2--2---2---2--2----2----|--L-----------------||
--3------3------3----3----|--L-----------------||
--------------------------|--------------------||




Duration Legend
---------------
W - whole
H - half
Q - quarter
E - 8th
S - 16th
T - 32nd
X - 64th
. - note dotted
|-n-|  - n-tuplets


Tablature Legend
----------------
L - tied note
x - dead note
g - grace note
(n) - ghost note
> - accentuded note
NH - natural harmonic
AH - artificial harmonic
TH - tapped harmonic
SH - semi harmonic
PH - pitch harmonic
h - hammer on
p - pull off
b - bend
br - bendRelease
pb - preBend
pbr - preBendRelease
brb - bendReleaseBend
\n/ - tremolo bar dip
\n - tremolo bar dive
-/n - tremolo bar Release up
/n\ - tremolo bar inverted dip
/n - tremolo bar return
-\n - tremolo bar Release down
S - shift slide
s - legato slide
/ -  slide into from below or out of upwards
\ -  slide into from above or out of downwards
~ - vibrato
W - wide vibrato
tr - trill
TP - tremolo picking
T - tapping
S - slap
P - pop
< - fade in
^ - brush up
v - brush down
Suggest correction What's this?
You can suggest a correction to this tab. Community and Mods will review your correction and vote to approve or reject it.
comments
We did not receive enough feedback on this tab! Please rate:
print report bad tab
1 2 3 4 5
I want to post or [tab]
guest
You may want to rate the tab now too:
select rating
Please do not post tabs as comments. Select "correction" instead!