Oops, an error
Loading. Please wait.

Hey Hey Girl Tab

6,920 views 12 this week
3 commentsread comments
1 2 3 4 5
excellent!
x 6
add to favorites
launch autoscroll
font size
0
reset
how to read this tab
guitar tuner
Autoscroll
slow
fast
+/-
esc
set tempo
stop
Help us to improve Ultimate-Guitar.com Take our survey!
×
Contributor
samd23 126
Blah, blah, blah first tab yeah whatever.
great song. great band. great album.

Intro
e|-13-15-13-15----13-15-15-15/17\15-13-|-15-15-15--13-13--|
B|-13----13-13----13-13-13-15/17\15-13-|-17-17-17--15-15--|
G|-14----14-14----14-14-14-------------|------------------| x2
D|-------------------------------------|------------------| 
A|-------------------------------------|------------------|
E|-------------------------------------|------------------|

Verse (x2)
    F  F    A# A#    C5 D5     Dm C   C A#                                  
e|--------|-------|-------------------------------|
B|-10-10--|--3-3--|-------------6-5---5--3--------|     
G|-10-10--|--3-3--|---5--7------7-5---5--3--------|
D|-10-10--|--3-3--|---5--7------7-5---5--3--------|
A|-8--8---|--1-1--|---3--5------------------------|
E|--------|-------|-------------------------------|
    F    add9  C   sus4  A#                                           
e|---------------------------------------------------------|
B|--6-6-6-8----5-5-5-6---3---------------------------------|
G|--5-5-5-5----5-5-5-5---3---------------------------------|
D|--7-7-7-7----5-5-5-5---3---------------------------------|
A|---------------------------------------------------------|
E|---------------------------------------------------------|

Pre-chorus

A# A#    Gm Gm    F F    A# A#    Gm Gm    A# A#

Chorus 
    F    C    A#   C          
e|-----------------------|
B|--5----5----3----5-----|
G|--5-x4-5-x4-3-x4-5-x4--| x3
D|--7----5----3----5-----|
A|-----------------------|
E|-----------------------|
    A#   C                  
e|-----------------------|
B|--3----5---------------|
G|--3-x4-5-x4------------|
D|--3----5---------------|
A|-----------------------|
E|-----------------------|

Verse (x2)
Chorus (x2)

Bridge

e|-1---(3-1)---|-----(3-1)---|
B|-1---(1-1)---|-3-----------|
G|-2---(2-2)---|-3-----------| x2
D|-0---(0-0)---|-3-----------|
A|-------------|-1-----------|
E|-------------|-------------|

Chorus (x2)

Finish on an F

That will be all.

Credit for this goes to John Taylor, my scik guitar teacher, and Alex Mann, resident no-hoper. 
comments
print report bad tab
3 comments total.
0 reply
Tukazoar 28 wrote on June 17 2009, 12:02 pm

this is shite. where's the tribute to dave the downie? also send me adolescent fornicators via email, cheers.

0 reply
samd23 126 wrote on June 17 2009, 02:29 pm

alex mann ^

0 reply
Tukazoar 28 wrote on June 21 2009, 09:10 am

jokes

I want to post or [tab]
guest
You may want to rate the tab now too:
select rating
Please do not post tabs as comments. Select "correction" instead!