Oops, an error
Loading. Please wait.

Love Is Colder Than Death Bass Tab

1,826 views 3 this week
1 commentread comment
1 2 3 4 5
please rate
add to favorites
launch autoscroll
font size
0
reset
guitar tuner
Autoscroll
slow
fast
+/-
esc
set tempo
stop
Help us to improve Ultimate-Guitar.com Take our survey!
×
Author
Difficulty
novice
Tabbed by chibi xP

Tuning: Standard

~  -  let it rrrring
/  -  slide up
\  -  slide down
h  -  hammer-on
p  -  pull-off
*  -  staccato

Verse

g|--------------------------------------------------------------|
d|-----------0~-------------------2--2--------6------------4----|
a|-0~--0-4~------------2--2---0~-------0-2-4----4--4-3--2-----2-|
e|---------------2~--2------0-----------------------------------|


g|--------------------------------------------------------------------------------------|
d|--------------------------------------------------------------------------------------|
a|--------------------------------------4-4---4-4-4-3-3-2-2---2-2-2-2-2---------2-2-2-2-|
e|-14\--2-2-2-2/--7-7\--5-5---5-5-5-0-0---------------------------------2-2---2---------|
        * * *

Pre-Chorus

g|--------------------------------------------------------------------|
d|--------------------------------------------------------------------|
a|-5-5-5-5-5-5-5-5\-4-4-4-4-4-4-4-4/-5-5-5-5-5-5-5-5\-2-2-2-2-4-4-2-2-|
e|--------------------------------------------------------------------|
   * * * * * * *      * * * * * *      * * * * * *      * * * *   *

Chorus

g|-------2---------------------------------------------------------|
d|-----------------------------------------------------------------|
a|-0-0-0---0-0-0-0-4-4-4-4-4-4-3-3-2-2-2-2-2-2-2-2-----------------|
e|-------------------------------------------------0-0-0-0-0-2-0-0-|


g|-------2--------------------------------------------------------------|
d|----------------------------------------------------2-2-2-2-2-4-2h4p2-|
a|-0-0-0----0-0-0-0-4-4-4-4-4-4-3-3-2-2-2-2-2-2-2h4p2-------------------|
e|----------------------------------------------------------------------|

Verse

g|----------------7/-9-7\-----------------------------------------------|
d|------------0~--------------------------2--2--------6------------4----|
a|-0~--0/-4~---------------------2~---0~-------0--4-4---4--4-3--2-----2-|
e|-------------------------2~--2----0-----------------------------------|


g|--------------------------------------------------------------------------------|
d|--------------------------------------------------------------------------------|
a|------------2-2-2-2-0-0---0-0-0-----4-4---4-4-4---4-2-2---2-2-2---2---------2-2-|
e|-14\--2~--2---------------------0-0---------------------------------2-2---2-----|
              * * * *

Pre-Chorus

g|-----------------------------------------------------------------------|
d|-----------------------------------------------------------------------|
a|-2-5-5-5-5-5-5--5--4-4-4-4-4-4-4-4/-5-5-5-5-5-5-5-5\-2-2-2-2-4-4-2h4p2-|
e|-----------------------------------------------------------------------|
     * * * * *       * * * * * * *      * * * * * *      * * * *

Chorus

g|-------2---------------------------------------------------------|
d|-----------------------------------------------------------------|
a|-0-0-0---0-0-0-0-4-4-4-4-4-4-4-4-2-2-2-2-2-2-2-2-----------------|
e|-------------------------------------------------0-0-0-0-0-2-0-0-|


g|-------2-------------------------------------------------------------|
d|---------------------------------------------------2-2-2-2-2-4-2h4p2-|
a|-0-0-0---0-0-0-0-4-4-4-4-4-4-3-3-2-2-2-2-2-2-2h4p2-------------------|
e|---------------------------------------------------------------------|

Bridge

g|------------------------------------------------------------------------------------------------|
d|0-0-0-0-0-0-0-0-0-0-0-0-0-0-2-------------------------------------------------------------------|
a|-------------------------------0-0-0-0-0-0-0-0-0-0-0-0-0-0-----2-2-2-2-2-2-2-2-2-2-2-2-2-2-2h4p2|
e|-----------------------------------------------------------0-0----------------------------------|


g|-----------------------------------|
d|-2-2-2-2-2-2-2-2-2-2-2-2-2-4-2h4p2-|
a|-----------------------------------|
e|-----------------------------------|

Chorus

g|-------2-------------------------------------------------------------|
d|---------------------------------------------------2-2-2-2-2-4-2h4p2-|
a|-0-0-0---0-0-0-0-/-4-4-4-4-4-4-4-3-2-2-2-2-2-2-2-2-------------------|
e|---------------------------------------------------------------------|
   * * *   * * *       * * * * * * * * * * * * * * * * * * * *


g|-------2-------------------------------------------------------------|
d|---------------------------6-----------------------2-2-2-2-2-4-2h4p2-|
a|-0-0-0---0-0-0-0-4-4-4-4-4---4-3-2-2-2-2-2-2-2h4p2-------------------|
e|---------------------------------------------------------------------|
   * * *   * * * * * * * *         * * * * *         * * * * *

Outro

g|--------------------------------------------------------------------------------|
d|-/-7~-----6~-----6\-4~-----4/-6~----7-6/-7~-----6~-----\4~-----/6~-----7-6/-7~--|     fade out
a|--------------------------------------------------------------------------------|
e|--------------------------------------------------------------------------------|

WOOOOOOOHOOOOOOOO!!

Any questions e-mail me  leckerlii@yahoo.de =)
Suggest correction
Give kudos to tab author, rate the tab!
1 2 3 4 5
comments
print report bad tab
1 comment total.
0 reply
maxcol 175 wrote on August 15 2014, 03:30 pm

perfect tab nothing to say

guest
You may want to rate the tab now too:
select rating
Please do not post tabs as comments. Select "correction" instead!