Oops, an error
Loading. Please wait.

One Week Of Danger Tab

version 1
version 1

Whole song

8,628 views 1 this week
no commentswrite comment
1 2 3 4 5
please rate
add to favorites
launch autoscroll
font size
0
reset
how to read this tab
guitar tuner
Autoscroll
slow
fast
+/-
esc
set tempo
stop
Help us to improve Ultimate-Guitar.com Take our survey!
×
-------------------------------------------------------------------------------
                        One Week Of Danger - The Virgins
-------------------------------------------------------------------------------
Tabbed by:Matt Lane
Email:mattylane@hotmail.co.uk

Tuning:Standard
Really easy cool song of there debut album, enjoy

Intro+Verse "Were best friends..."
============
e|--------------|
B|--------------|
G|-------5------|
D|-5-5\3-5------|
A|-5-5\3-3------|
E|-3-3\1--------|

Pre-chorus "Comon baby we get along..."
==========
e|-------------|
B|-------------|
G|---5-5-5-5---|
D|-5-5-5-5-5---|
A|-5-3-3-3-3---|
E|-3-----------|

Chorus "Give me just one week..."
======
e|--------------------------------------|
B|--------------------------------------|
G|-----------------5-5-5-5-5-5-5-5-5----|
D|-5-5-5-5-5-5-5-5-5-5-5-5-5-5-5-5-5----|
A|-5-5-5-5-5-5-5-5-3-3-3-3-3-3-3-3-3----|
E|-3-3-3-3-3-3-3-3----------------------|

Bridge "You talk about me like you own me..."
======
e|-------------|
B|-------------|
G|-7-7-5-5-----|
D|-x-x-x-x-----|
A|-5-5-3-3-----|
E|-------------|

Solo (Rough)
====
e|-------------------------------------------------------------------------------|
B|-------6-----------------------------------------------------------------------|
G|-7-6-7---7-6-5-6b7-5-------5---5-4-5-4-6b7-7-7-7-7-7-7-7-7-5-------5---5-4-5-4-|
D|---------------------7-5-7---7-------------------------------7-5-7---7---------|
A|-------------------------------------------------------------------------------|
E|-------------------------------------------------------------------------------|

Order:
======
Intro
Verse
Pre-Chorus
Chorus
Verse
Pre-Chorus
Chorus
Bridge
Solo
Verse riff 
Chorus
End on G




Suggest correction
Give kudos to tab author, rate the tab!
1 2 3 4 5
comments
print report bad tab
guest
You may want to rate the tab now too:
select rating
Wanna post a correction for this tab? Suggest correction