Oops, an error
Loading. Please wait.

Private Affair Bass Tab

version 1
version 1

Whole song

Interactive

4,020 views 1 this week
1 commentread comment
1 2 3 4 5
accurate
x 4
add to favorites
launch autoscroll
font size
0
reset
guitar tuner
Autoscroll
slow
fast
+/-
esc
set tempo
stop
Help us to improve Ultimate-Guitar.com Take our survey!
×
Author
uhhuhher 150
tabbed by chibi xP

p - pull-off
h - hammer-on
~ - let it ring

Verse

G|---------------------------|
D|-------5-5-5---8-8-8-7-5-7-| 2x
A|-5-(8x)--------------------|
E|---------------------------|

G|-----------------------------------------------|
D|-----0-----------------------------------------|
A|-1-1---1-0-0-3-0-----1-----------1-(8x)-3-(8x)-|
E|-----------------3-3---3---1-1-1---------------|


Chorus 1

G|----------------------------|
D|----------------------------| 2x
A|-5-(8x)-1-(8x)-------3-(8x)-|
E|---------------1-(8x)-------|

Chorus 2

G|-------------------------------------------|
D|-7-7-7-7~-5-5-8-7-5---5-5-5-5~-7-7-8-7-5---|
A|--------------------8--------------------8-|
E|-------------------------------------------|


Verse

G|---------------------------|
D|-------5-5-5---8-8-8-7-5-7-| 2x
A|-5-(8x)--------------------|
E|---------------------------|

G|-----------------------------------------------|
D|-----0-----------------------------------------|
A|-1-1---1-0-0-3-0-----1-----------1-(8x)-3-(8x)-|
E|-----------------3-3---3---1-1-1---------------|


Chorus 1

G|----------------------------|
D|----------------------------| 2x
A|-5-(8x)-1-(8x)-------3-(8x)-|
E|---------------1-(8x)-------|


Chorus 2

G|-------------------------------------------|
D|-7-7-7-7~-5-5-8-7-5---5-5-5-5~-7-7-8-7-5---| 2x
A|--------------------8--------------------8-|
E|-------------------------------------------|


Solo

G|----------------------------------------------------------------------|
D|------------------------------------5-5-5-----------------------------|
A|-5-5-5-3p0h3p0h3-5-x-5-3p0h3p0h3-5--------3p0h3p0h3-5-x-5-3p0h3p0h3-5-|
E|----------------------------------------------------------------------|


Chorus 1

G|----------------------------|            End on
D|----------------------------| 4x     
A|-5-(8x)-1-(8x)-------3-(8x)-|           A|-5--|
E|---------------1-(8x)-------|           E|----|



WOOOOOOOOOHOOOOOOOOO!!

Any questions e-mail me leckerlii@yahoo.de =)
Suggest correction new What's this?
You can suggest a correction to this tab. Community and Mods will review your correction and vote to approve or reject it.
comments
print report bad tab
1 comment total.
0 reply
RDokz 190 wrote on May 23 2009, 03:05 pm

Really good

guest
You may want to rate the tab now too:
select rating
Please do not post tabs as comments. Select "correction" instead!