Oops, an error
Loading. Please wait.

Rich Girls Bass Tab

version 1
version 1

Whole song

Interactive

32,703 views 33 this week
3 commentsread comments
1 2 3 4 5
x 7
add to favorites
launch autoscroll
font size
0
reset
guitar tuner
Autoscroll
slow
fast
+/-
esc
set tempo
stop
Help us to improve Ultimate-Guitar.com Take our survey!
×
Author
[Main Riff]
G|-----1-0----------------------|
D|-3-3---------------66-55------|
A|---------1---44-33------------|
E|------------------------------|

G|-----1-0---3-------------------|
D|-3-3---------------66-55-------|
A|---------11---44-33------------|
E|-------------------------------|

G|-----1-0-----------------------|
D|-3-3----------------66-55------|
A|---------1---334433------------|
E|-------------------------------|

G|-----1-0----------------------------|
D|-3-3--------33--------66-55---------|
A|---------11-----44-33---------------|
E|------------------------------------|

[Pre-Chorus]
G|--------------------55-----------333-----------------|
D|-------66--------55----55-----33-----3---------------|
A|----66----66--33-----------11--------------44444-666-|
E|-44--------------------------------------------------|

[Chorus]
G|-----------------------------------------------|
D|-----------------------------------------------|
A|-44444444------------10---10----8---6~\4~/15\1-|
E|----------44444444-88--888--8-66-666-----------|

[Pre-Verse]
G|----------------|
D|-3-1------------|
A|-----1h3p1-443~-| (x2)
E|----------------|

[Main Riff]
G|-----1-0----------------------|
D|-3-3---------------66-55------|
A|---------1---44-33------------|
E|------------------------------|

G|-----1-0---3-------------------|
D|-3-3---------------66-55-------|
A|---------11---44-33------------|
E|-------------------------------|

G|-----1-0-----------------------|
D|-3-3----------------66-55------|
A|---------1---334433------------|
E|-------------------------------|

G|-----1-0----------------------------|
D|-3-3--------33--------66-55---------|
A|---------11-----44-33---------------|
E|------------------------------------|

[Pre-Chorus]
G|--------------------55-----------333-----------------|
D|-------66--------55----55-----33-----3---------------|
A|----66----66--33-----------11--------------44444-666-|
E|-44--------------------------------------------------|

[Chorus]
G|-----------------------------------------------|
D|-----------------------------------------------|
A|-44444444------------10---10----8---6~\4~/15\1-|
E|----------44444444-88--888--8-66-666-----------|

[Pre-Verse]
G|----------------|
D|-3-1------------|
A|-----1h3p1-443~-| (x2)
E|----------------|

[Main Riff]
G|-----1-0----------------------|
D|-3-3---------------66-55------|
A|---------1---44-33------------|
E|------------------------------|

G|-----1-0---3-------------------|
D|-3-3---------------66-55-------|
A|---------11---44-33------------|
E|-------------------------------|

G|-----1-0-----------------------|
D|-3-3----------------66-55------|
A|---------1---334433------------|
E|-------------------------------|

G|-----1-0----------------------------|
D|-3-3--------33--------66-55---------|
A|---------11-----44-33---------------|
E|------------------------------------|

[Pre-Chorus]
G|--------------------55-----------333-----------------|
D|-------66--------55----55-----33-----3---------------|
A|----66----66--33-----------11--------------44444-666-|
E|-44--------------------------------------------------|

[Chorus]
G|-----------------------------------------------|
D|-----------------------------------------------|
A|-44444444------------10---10----8---6~\4~/15\1-|
E|----------44444444-88--888--8-66-666-----------|

[Pre-Verse]
G|----------------|
D|-3-1------------|
A|-----1h3p1-443~-| (x2)
E|----------------|

[Main Riff]
G|-----1-0----------------------|
D|-3-3---------------66-55------|
A|---------1---44-33------------|
E|------------------------------|

G|-----1-0---3-------------------|
D|-3-3---------------66-55-------|
A|---------11---44-33------------|
E|-------------------------------|

G|-----1-0-----------------------|
D|-3-3----------------66-55------|
A|---------1---334433------------|
E|-------------------------------|

G|-----1-0----------------------------|
D|-3-3--------33--------66-55---------|
A|---------11-----44-33---------------|
E|------------------------------------|

[Outro]
G|----------------|
D|-3-1------------|
A|-----1h3p1-443~-|
E|----------------|

G|----------------------|
D|-3-1------------66655-|
A|-----1h3p1-4433-------|
E|----------------------|

G|----------------|
D|-3-1------------|
A|-----1h3p1-443~-|
E|----------------|

G|-----1-0---3----------------------|
D|-3-3--------3-------66-55---------|
A|---------1----334433--------------|
E|----------------------------------|


************************************

| \  Slide down
| h  Hammer-on
| p  Pull-off
| ~  Vibrato

************************************
Suggest correction
comments
print report bad tab
3 comments total.
0 reply
wbalston 194 Jun 02, 2014 09:27 PM

i hear the main riff like this
-----1-1----------------------|
-3-3---------------66-55------|
---------1---44--3------------|
------------------------------|

-----1-1----------------------|
-3-3------33-------66-55------|
---------1---44--3------------|
------------------------------|

-----1-1----------------------|
-3-3---------------66-55------|
---------1---44--3------------|
------------------------------|

-----1-1-----------------------|
-3-3----------------66-55------|
---------1-2h3h44-3------------|
-------------------------------|

0 reply
wbalston 194 Jun 02, 2014 09:40 PM

and continues like this

-----1-1----------------------|
-3-3------33--------6--5------|
---------1---44--3------------|
------------------------------|

-----1-1--33------------------|
-3-3--------------------------|
---------1---44--3------------|
------------------------------|

then 1st chorus

the preverse has an extra hammer-on in the beginning
PreVerse
-----------------|
1h3-1------------|
------1h3p1-443~-| x2
-----------------|

then the verse riff resumes from the 3rd variation (of the 6 variations that are played in order each time) and continues like the first verse.

0 reply
wbalston 194 Jun 02, 2014 09:40 PM

and continues like this

-----1-1----------------------|
-3-3------33--------6--5------|
---------1---44--3------------|
------------------------------|

-----1-1--33------------------|
-3-3--------------------------|
---------1---44--3------------|
------------------------------|

then 1st chorus

the preverse has an extra hammer-on in the beginning
PreVerse
-----------------|
1h3-1------------|
------1h3p1-443~-| x2
-----------------|

then the verse riff resumes from the 3rd variation (of the 6 variations that are played in order each time) and continues like the first verse.

guest
You may want to rate the tab now too:
select rating
Wanna post a correction for this tab? Suggest correction