Oops, an error
Loading. Please wait.

Rich Girls Tab

version 1
version 1

Whole song

Interactive

33,799 views 3 this week
no commentswrite comment
1 2 3 4 5
please rate
add to favorites
launch autoscroll
font size
0
reset
how to read this tab
guitar tuner
Autoscroll
slow
fast
+/-
esc
set tempo
stop
Help us to improve Ultimate-Guitar.com Take our survey!
×
Author
Difficulty
intermediate
-------------------------------------------------------------------------------

			     Rich Girls - The Virgins

-------------------------------------------------------------------------------

Tabbed by:españa (bandit56)

Email:punx_o_matix@sbcglobal.net



Tuning:EADGBe

	
This song is by The Virgins a New York independent rock band, they've had a bit of 
media exposure they've been played on indie 103.1 (on the Feel My Heat Radio Show
With Danny Masterson and Brent Bolthouse) in Los Angeles and you can actually find 
videos on you tube to figure out the rhythm of the song you should really hear the 
song and play along to t for a while to get the rhythm right. The song was also used 
for a scene in the new show Gossip Girl. This is the first tab for this song i hope 
you like it and rate it, all corrections and comments are welcomed.  peace 



Intro:
Pull Off-(you can add some strummed hand muted chords after the pull offs in between)

e|-----8----------8------------------------------8---8--x--x-------------------------|

B|-----9----------8------------------------------9---8--x--x-------------------------|

G|----10----------8-----(repeat 4 times)--OR----10---8--x--x----(repeat 4 times)-----|

D|----10----------8-----------------------------10---8--x--x-------------------------|

A|-----x----------x------------------------------x---x--x--x-------------------------|

E|-----x----------x------------------------------x---x--x--x-------------------------|



Verse:


e|----8---8---8-----6--666-----4-4-----333-------------------------------------------|

B|----9---9---9-----6--666-----4-4-----444-------------------------------------------|

G|---10--10--10-----6--666-----4-4-----555----(repeat appx. 14 times)----------------|

D|---10--10--10-----8--888-----6-6-----555-------------------------------------------|

A|----x---x---x-----8--888-----6-6-----333-------------------------------------------|

E|----x---x---x-----x--xxx-----x-x-----xxx-------------------------------------------|



Chorus:


e|---4-4-4-4----8--8--8--8---6-6-6-6---9--9--9---11-11-11----------------------------|

B|---4-4-4-4----8--8--8--8---6-6-6-6---9--9--9---11-11-13----------------------------|

G|---5-5-5-5----8--8--8--8---6-6-6-6--10-10-10---12-12-12----(repeat 2 times)--------|

D|---6-6-6-6---10-10-10-10---8-8-8-8--11-11-11---13-13-13----------------------------|

A|---6-6-6-6---10-10-10-10---8-8-8-8--11-11-11---13-13-13----------------------------|

E|---x-x-x-x----x--x--x--x---x-x-x-x---9--9--9---11-11-11----------------------------|


Let The Chords Ring 


e|----x-----4-----x-----x-----3-4---------------88-66-88-11-8-6---(you can also try-|

B|----6-----4-----x-----x-----3-5---------------55-55-55------------sliding on these|

G|----6-----5-----5-----3-----3-6--(let ring)---66-66-66-----------last three notes-|

D|----6-----6-----5-----3-----3-6---------------66-66-66-----------the 11 8 6 part)-|

A|----4-----6-----3-----1-----1-4---------------44-44-44----------------------------|

E|----x-----x-----x-----x-----x-x---------------xx-xx-xx----------------------------|


the song is repeated in this pattern listen to the song for the correct 
pattern on verses and chorus etc...







| /  slide up

| \  slide down

| h  hammer-on

| p  pull-off

| ~  vibrato

| +  harmonic

| x  Mute note

===============================================================================

Suggest correction
Give kudos to tab author, rate the tab!
1 2 3 4 5
comments
print report bad tab
guest
You may want to rate the tab now too:
select rating
Wanna post a correction for this tab? Suggest correction