Oops, an error
Loading. Please wait.

Rich Girls Bass Tab

version 2
version 2

Whole song

Interactive

8,177 views 1 this week
no commentswrite comment
1 2 3 4 5
accurate
x 6
add to favorites
launch autoscroll
font size
0
reset
guitar tuner
Tab Pro tools
  • play this tab
  • loop segment
  • change instrument
  • show fretboard
  • metronome
×
Best way to learn
"Rich Girls"
Autoscroll
slow
fast
+/-
esc
set tempo
stop
Difficulty
intermediate
-------------------------------------------------------------------------------
			     RICH GIRLS – The Virgins
-------------------------------------------------------------------------------

Tabbed By : MikeC
e-mail: jerZb0nes@yahoo.com

Tuning: EADG

Intro/Verse “We walk around”
G|-----1-1----------------------------1-1----------------------------|
D|-3-3--------3-3---------6-6-5-5-3-3--------3-3-------------6-6-5-5-| X3
A|---------1------4-4-3-3-----------------1------1h3-4-4-3-3---------|
E|-------------------------------------------------------------------|

Pre-Chorus “I’ll tell you everything I know”
G|-------------------------5-5-------------------------------------|
D|---------6-6---------5-5-----5-5---------6-6---------------------| X2
A|-----6-6-----6-6-3-3-----------------6-6-----6-6-4-4-4-4/6-6-6-6-|
E|-4-4-----------------------------4-4-----------------------------|

Chorus “oh what lovely way with words…”
G|------------------------------------------------|
D|------------------------------------------------|
A|-4x8---------------4~-4/14-14-14-14-16-16-16-16-|
E|-------4x8-8x8-6x8------------------------------|

Post-Chorus “You got to know…”
G|------------------|
D|-3-1--------------| X2
A|-----1h3-1~-4-4-3-|
E|------------------|

Verse “We walk around”
G|-----1-1----------------------------1-1----------------------------|
D|-3-3--------3-3---------6-6-5-5-3-3--------3-3-------------6-6-5-5-| X2
A|---------1------4-4-3-3-----------------1------1h3-4-4-3-3---------|
E|-------------------------------------------------------------------|

Pre-Chorus “I’ll tell you everything I know”
G|-------------------------5-5-------------------------------------|
D|---------6-6---------5-5-----5-5---------6-6---------------------| X2
A|-----6-6-----6-6-3-3-----------------6-6-----6-6-4-4-4-4/6-6-6-6-|
E|-4-4-----------------------------4-4-----------------------------|

Chorus “oh what lovely way with words…”
G|------------------------------------------------|
D|------------------------------------------------|
A|-4x8---------------4~-4/14-14-14-14-16-16-16-16-|
E|-------4x8-8x8-6x8------------------------------|
 
Post-Chorus “You got to know…”
G|---------------------------------|
D|-3-1------------3-1--------------|
A|-----3-1~-4-4-3-----1h3-1~-4-4-3-|
E|---------------------------------|

Verse “I went down to your house…”
G|-----1-1----------------------------1-1----------------------------|
D|-3-3--------3-3---------6-6-5-5-3-3--------3-3-------------6-6-5-5-| X2
A|---------1------4-4-3-3-----------------1------1h3-4-4-3-3---------|
E|-------------------------------------------------------------------|

G|-----1-1------------------------|
D|-3-3--------3-3---------6-6-5-5-|
A|---------1------4-4-3-3---------|
E|--------------------------------|

Outro “ooh-ooh-ooh”
G|-------------------------------------------| 
D|-3-1------------3-1----------------6-6-5-5-| 
A|-----3-1~-4-4-3-----1h3-1~-4-4-3-3---------| 
E|-------------------------------------------| 

G|--------------------------| 
D|-3-1--------------6-6-5-5-| 
A|-----3-1~-4-4-3-3---------| 
E|--------------------------| 

G|-------------------------5-|
D|-3-1----------------6-6-5--| X3
A|-----1h3-1~-4-4-3-3--------|
E|---------------------------|

| /  slide up
| \  slide down
| h  hammer-on
| p  pull-off
| ~  vibrato
| +  harmonic
| x  Mute note
===============================================================================

comments
print report bad tab
I want to post or [tab]
guest
You may want to rate the tab now too:
select rating
Please do not post tabs as comments. Select "correction" instead!