Oops, an error
Loading. Please wait.

Rich Girls Tab

version 2
version 2

Whole song

Interactive

9,914 views 3 this week
no commentswrite comment
1 2 3 4 5
accurate
x 4
add to favorites
launch autoscroll
font size
0
reset
how to read this tab
guitar tuner
Tab Pro tools
  • play this tab
  • loop segment
  • change instrument
  • show fretboard
  • metronome
×
Best way to learn
"Rich Girls"
Autoscroll
slow
fast
+/-
esc
set tempo
stop
Contributor
-------------------------------------------------------------------------------
                             RICH GIRLS - The Virgins
-------------------------------------------------------------------------------
Tabbed by: Jonah Strong
Email: jonah_strong34@live.com

Tuning:standard

e|-------66-666-xx-------(4-6-4-6)-------------------------------------------|
B|-8--9--66-666-xx-----------------------------------------------------------|
G|-8--8--66-666-xx-6-6-5-----------------------------------------------------|
D|-10-10-66-666-xx-6-6-5-----------------------------------------------------| x6 or somethin
A|-8--8--88-666-xx-4-4-3-----------------------------------------------------|
E|-8--8--66-666-xx-----------------------------------------------------------|

e|---------------------------------------------------------------------------|
B|---------------------------------------------------------------------------|
G|---------------------------------------------------------------------------|
D|-66-66-66-66-1010-1010-1010-1010-88-88-88-88-11-11-11-11-11-13-13-13-13-13-| x2
A|-66-66-66-66-1010-1010-1010-1010-88-88-88-88-11-11-11-11-11-13-13-13-13-13-|
E|-44-44-44-44-88---88---88---88---66-66-66-66-9--9--9--9--9--11-11-11-11-11-|

e|---------------------------------------------------------------------------|
B|---------------------------------------------------------------------------|
G|-6-6-6-6-6-6-6-6-------------------5-5-5-5-5-5-5--3-3-3-3-3-3-3-3----------|
D|-6-6-6-6-6-6-6-6-6-6-6-6-6-6-6-6-6-5-5-5-5-5-5-5--3-3-3-3-3-3-3-3----------|
A|-4-4-4-4-4-4-4-4-6-6-6-6-6-6-6-6-6-3-3-3-3-3-3-3--1-1-1-1-1-1-1-1----------|
E|-----------------4-4-4-4-4-4-4-4-4-----------------------------------------|

e|--------8-8--6-6--8-8--8-10-8-6--------------------------------------------|
B|---5-----------------------------------------------------------------------|
G|---6-----------------------------------------------------------------------|
D|---6-----------------------------------------------------------------------|
A|---4-----------------------------------------------------------------------|
E|---------------------------------------------------------------------------|

e|---------------------------------------------------------------------------|
B|------6-6-66-6-6-6-66-6-6-6-66-6-------------------------------------------|
G|---------------------------------------------------------------------------|
D|---------------------------------------------------------------------------| (0:57)
A|---------------------------------------------------------------------------|
E|---------------------------------------------------------------------------|


===============================================================================

| /  slide up
| \  slide down
| h  hammer-on
| p  pull-off
| ~  vibrato
| +  harmonic
| x  Mute note
===============================================================================
comments
print report bad tab
I want to post or [tab]
guest
You may want to rate the tab now too:
select rating
Please do not post tabs as comments. Select "correction" instead!