Oops, an error
Loading. Please wait.

Rich Girls Bass Tab

version 3
version 3

Whole song

Interactive

2,976 views 1 this week
2 commentsread comments
1 2 3 4 5
1 last vote to show rating
add to favorites
launch autoscroll
font size
0
reset
guitar tuner
Autoscroll
slow
fast
+/-
esc
set tempo
stop
Help us to improve Ultimate-Guitar.com Take our survey!
×
Difficulty
intermediate
_____________________________________________________________________________

                             The Virgins - Rich Girls
_____________________________________________________________________________


Intro/ Verse
G|----------------------------------------------------------------|
D|-----6-6----------------6-6-5-5------6-6----8-8---------6-6-5-5-|
A|-8-8-----------------------------8-8----------------------------|
E|---------6------9-9-8-8------------------6------9-9-8-8---------|

G|----------------------------------------------------------------|
D|-----6-6----------------6-6-5-5------6-6----------------6-6-5-5-|
A|-8-8-----------------------------8-8----------------------------|
E|---------6------9-9-8-8------------------6-----6/9-9-8-8--------|

G|-------------------------------------------------------|
D|-----6-6-----8----------6-6-5-5------6-6----8----------|
A|-8-8-----------------------------8-8-------------------|
E|---------6------9-9-8-8------------------6------9-9-8--|

Pre-Chorus
G|-------------------------5-5-------------------------------------|
D|---------6-6---------5-5-----5-5---------6-6---------------------|X2
A|-----6-6-----6-6-3-3-----------------6-6-----6-6-4-4-4-4/6-6-6-6-|
E|-4-4-----------------------------4-4-----------------------------|

Chorus
G|---------------------------|
D|---------------------------|  
A|-4x8---------------4--4/16-|
E|-------4x8-8x8-6x8---------|

Post-Chorus
G|------------------------------------|
D|------------------------------------|
A|-8-6-8------4-4-3--8-6-8------4-4-3-|
E|-------8-6---------------6h8-6------|

Verse
G|----------------------------------------------------------------|
D|-----6-6----------------6-6-5-5------6-6----------------6-6-5-5-|
A|-8-8-----------------------------8-8----------------------------|
E|---------6------9-9-8-8------------------6-----6/9-9-8-8--------|

G|-------------------------------------------------------|
D|-----6-6-----8----------6-6-5-5------6-6----8----------|
A|-8-8-----------------------------8-8-------------------|
E|---------6------9-9-8-8------------------6------9-9-8--|

Pre-Chorus
G|-------------------------5-5-------------------------------------|
D|---------6-6---------5-5-----5-5---------6-6---------------------|X2
A|-----6-6-----6-6-3-3-----------------6-6-----6-6-4-4-4-4/6-6-6-6-|
E|-4-4-----------------------------4-4-----------------------------|

Chorus
G|--------------------------------------------------------------------------|
D|---------------6--------------4------------------2------------------------|
A|-4-4-4-4-4-4-7--------------5------------------3------------------4--4/16-|
E|----------------4-4-4-4-4-4--------8-8-8-8-8-8----6-6-6-6-6-6-6-6---------|


Post-Chorus
G|------------------------------------|
D|------------------------------------|
A|-8-6-8------4-4-3--8-6-8------4-4-3-|
E|-------8-6---------------6h8-6------|

Verse
G|----------------------------------------------------------------|
D|-----6-6----------------6-6-5-5------6-6----------------6-6-5-5-|
A|-8-8-----------------------------8-8----------------------------|
E|---------6------9-9-8-8------------------6-----6/9-9-8-8--------|

G|----------------------------------------------------------------|
D|-----6-6-----8----------6-6-5-5------6-6-----8----------6-6-5-5-|
A|-8-8-----------------------------8-8----------------------------|
E|---------6------9-9-8-8------------------6-------9-9-8-8--------|

G|-------------------------------|
D|----6-6----8-8---------6-6-5-5-|
A|8-8----------------------------|
E|--------6------9-9-8-8---------|

Outro
G|---------------------------------------------|
D|------------------------------------6-6-6-5-5|X3
A|-8-6-8------4-4-3--8-6-8------4-4-3----------|
E|-------8-6---------------6h8-6---------------|


/ slide up
h hammer-on
Suggest correction
Give kudos to tab author, rate the tab!
1 2 3 4 5
comments
print report bad tab
2 comments total.
0 reply
jimmyeevans 10 May 02, 2014 02:51 AM

At least on the recorded version of the song, the final 4 seconds sounds like this:
Outro
G|---------------------------------------------|
D|---6-------3---------------------------------|
A|-4--4-3---1-1--------------------------------|
E|--------------2-1----------------------------|

0 reply
jimmyeevans 10 May 02, 2014 02:52 AM

At least on the recorded version of the song, the final 4 seconds sounds like this:
Outro
G|---------------------------------------------|
D|---6-------3---------------------------------|
A|-4--4-3---1-1--------------------------------|
E|--------------2-1----------------------------|

guest
You may want to rate the tab now too:
select rating
Wanna post a correction for this tab? Suggest correction