Oops, an error
Loading. Please wait.

Teen Lovers Bass Tab

version 1
version 1

Whole song

4,266 views 1 this week
3 commentsread comments
1 2 3 4 5
x 5
add to favorites
launch autoscroll
font size
0
reset
guitar tuner
Autoscroll
slow
fast
+/-
esc
set tempo
stop
Help us to improve Ultimate-Guitar.com Take our survey!
×
-------------------------------------------------------------------------------
                           TEEN LOVERS - The Virgins
------------------------------------------------------------------------------- 

This is a really infectious funky bass line!

Bass comes in with vocals at 0.15


  verse 0.15 (Remember walking on the first time...)
G|---------------------------------------------|
D|---------------------------------------------|
A|-------------------------------------0h2h4---|
E|-6-6-6---4-44-4---4-4-4---2-22-0h2h4-------2-| X2
 
  pre-chorus 0.31 (One, Two, Three, Four)                           
G|-------------8--10---11--10----|
D|-------------------------------|
A|-6-6-6-6---6---8---9---8-------|
E|-------------------------------| X2 

  chorus 0.39 (Teen lovers...) 
G|-------------------------------------------------------------------|
D|-------------------------------------------------------------------|
A|-----------------8-888-888-888-88----------------8-888-888-888-888-|
E|-9-999-999-999-99----------------6-666-666-666-66------------------| X2
  (galloping rhythm)

*REPEAT VERSE AND PRE-CHORUS*

  bridge 1.26  
G|-------------------------------------------------------------------|
D|-8-888-888-888-886-666-666-666-666-666-666-666-664-444-444-444-4---|
A|-------------------------------------------------------------------|
E|-------------------------------------------------------------------| 
  (galloping rhythm)

*REPEAT CHORUS TILL END*

===============================================================================
| /  slide up
| \  slide down
| h  hammer-on
| p  pull-off
| ~  vibrato
| +  harmonic
| x  Mute note
===============================================================================
Suggest correction
comments
print report bad tab
3 comments total.
+2 reply
chris909090 10 Apr 21, 2009 10:08 PM

yo man, sweet tab, but i've been listening to the break before the chorus and i think the bass may be this? have a listen and see what you think! apart from that, spot on tab i reckon:)

G|-------------8--10---11--10--
D|-----------------------------
A|-6-6-6-6---6---8---9---8-----
E|-----------------------------

G|-------------8--10---11------
D|-----------------------------
A|-6-6-6-6---6---8---9---8\----
E|----------------------------- which seems to fit the song abit better

0 reply
nickgloucester 90 Apr 22, 2009 07:54 AM

cheers man! sounds better, knew there was something missing

0 reply
Glentendo24 161 Jun 21, 2010 06:08 PM

actually the break before the chorus goes like this

G|------------8--10--11--10--
D|---------------------------
A|-6-6-6-6---6-6---8---9---8-
E|---------------------------

the octaves go from higher to lower

guest
You may want to rate the tab now too:
select rating
Wanna post a correction for this tab? Suggest correction