Oops, an error
Loading. Please wait.

Teen Lovers Bass Tab

version 2
version 2

Whole song

436 views 1 this week
no commentswrite comment
1 2 3 4 5
please rate
add to favorites
launch autoscroll
font size
0
reset
guitar tuner
Autoscroll
slow
fast
+/-
esc
set tempo
stop
Help us to improve Ultimate-Guitar.com Take our survey!
×
Author
Difficulty
novice
|---------------------------|
| Teen Lovers - The Virgins |
|---------------------------|

Tabbed by: Glentendo24
Tuning: Standard
 
The only thing that differs from Version 1 is the fill during 
the verse and the fill during the pre chorus. Other than that,
Version 1 is perfectly fine =]

  Verse
G|-------------------------------------------------------|
D|------------------------------------------------2h4----|
A|-------------------------------------------0h2h4-------|
E|--/6-6-6~---4-x-4-4~--4-4-4~--2-x-2--0h2h4-------------|

Pre Chorus
G|------------8---10--11--10------------|
D|--------------------------------------|
A|--6-6-6-6--6-6----8---9----8----------|
E|--------------------------------------|

End Song On...
G|----|--6--|--6--|--10--|--18--|--13--|
D|----|-----|--6--|--11--|--18--|--15--|  Choose 1 =]
A|-4--|--4--|--4--|--11--|--16--|--16--|
E|----|-----|-----|--9---|------|------|

The End =]
Suggest correction
Give kudos to tab author, rate the tab!
1 2 3 4 5
comments
print report bad tab
guest
You may want to rate the tab now too:
select rating
Please do not post tabs as comments. Select "correction" instead!