Oops, an error
Loading. Please wait.

Teen Lovers Tab

version 2
version 2

Whole song

3,570 views 3 this week
no commentswrite comment
1 2 3 4 5
1 last vote to show rating
add to favorites
launch autoscroll
font size
0
reset
how to read this tab
guitar tuner
Autoscroll
slow
fast
+/-
esc
set tempo
stop
Help us to improve Ultimate-Guitar.com Take our survey!
×
Author
Difficulty
novice
|---------------------------|
| Teen Lovers - The Virgins |
|---------------------------|

Tabbed by: Glentendo24
Tuning: Standard

|Guitar|

Intro/Verse
e|--6-6--------------| |-4-4--------------|   |--2-2---------------|
B|--6-6--------------| |-4-4--------------|   |--2-2---------------|
G|--6-6----6-6---6---| |-5-5----5-5---5---|   |--3-3----3-3---3----|
D|-------8-----8---8-| |------6-----6---6-|x2 |-------4-----4---4--|
A|-------------------| |------------------|   |--------------------|
E|-------------------| |------------------|   |--------------------|


Pre Chorus
e|-x---x-x-x---x-x-x---x-x-x---x-x--\-6--6-6--x-x-x--/-6--6-6------|
B|-x---x-x-x---x-x-x---x-x-x---x-x--\-7--7-7--x-x-x--/-7--7-7------|
G|-x---x-x-x---x-x-x---x-x-x---x-x--\-8--8-8--x-x-x--/-8--8-8------| x2
D|-x---x-x-x---x-x-x---x-x-x---x-x------------x-x-x----------------|
A|-x---x-x-x---x-x-x---x-x-x---x-x------------x-x-x----------------|
E|-x---x-x-x---x-x-x---x-x-x---x-x------------x-x-x----------------|


Chorus
e|--9--x--9-------------8---x--8-------------6-x-6-----------|
B|--9--x--9-----9--9----9---x--9-----9--9----6-x-6---9--9----|
G|--10-x--10--10-10-10--10--x--10--10-10-10--6-x-6-10-10-10--|
D|--11-x--11------------10--x--10------------8-x-8-----------|
A|--11-x--11------------8---x--8-------------8-x-8-----------|
E|--9--x--9--------------------------------------------------|

----8--x--8-----------------|
----9--x--9------9----------|
----10-x--10--10---10--8\---|
----10-x--10----------------|
----8--x--8-----------------|
----------------------------|


Solo (distorted)

e|--6-6-----4----------| |-4-4-----4------------|   |--2-2-----4-------|
B|--6-6--6p4-6p4-6-6p4-| |-4-4--6p4-6p4-6-6p4---|   |--2-2--6p4-6p4----|
G|--6-6----------------| |-5-5------------------| x2|--3-3---------6---|
D|---------------------| |----------------------|   |------------------|
A|---------------------| |----------------------|   |------------------|
E|---------------------| |----------------------|   |------------------|


|Synth|

Intro
e|---13--11--9--8-------11--9--8--6-------|
B|----------------------------------------|
G|---10--8---6--5-------8---6--5--3-------|
D|----------------------------------------|
A|----------------------------------------|
E|----------------------------------------|

Chorus
e|-----11--9--8-----11-9--8--6------------|
B|------------------------------9/11------|
G|-10--8---6--5-----8--6--5--3------------|
D|------------------------------6/8-------|
A|--8-------------------------------------|
E|----------------------------------------|
The chorus synth is really hard to hear.
You have to pay real close attention to
know when to play the notes.

End Song on...

|Guitar|
e|-------|   |--4---|
B|--9----|   |--6---|
G|--10---|or |--6---|
D|--11---|   |--6---|
A|--11---|   |--4---|
E|--9----|   |------|

|Synth|
e|--------------|
B|--11----------|
G|--------------|
D|--8-----------|
A|--------------|
E|--------------|

The End =]
Suggest correction
Give kudos to tab author, rate the tab!
1 2 3 4 5
comments
print report bad tab
guest
You may want to rate the tab now too:
select rating
Wanna post a correction for this tab? Suggest correction