Oops, an error
Loading. Please wait.

Pawn Shoppe Heart tab

version 1
version 1

Whole song

1,817 views 1 this week
2 commentsread comments
1 2 3 4 5
1 last vote to show rating
add to favorites
×
Save as Personal and add changes to this tab that will be seen only by you. Learn more ›
×
You can save this tab as Personal to edit and correct it or add notes. All changes will be seen only by you. Learn more »
launch autoscroll
font size
0
reset
how to read this tab
guitar tuner
edit
Autoscroll
slow
fast
+/-
esc
set tempo
stop
------------------------------------------------------------------------------- 
Pawn Shoppe Heart - The Von Bondies
-------------------------------------------------------------------------------
Tabbed by: Hugo Amarales 
Email: alberamaral@aol.com


| / Slide up
| \ Slide down
| H hammer-on
| P pull-off
| ~ Vibrato
| + Harmonic
| X Mute note
| TR Tremelo 

Tuning: Standard (EADGBE)

I could tab out the intro and the rhythm guitar parts the solos are kind of hard so I
couldn't tab it out, ill tab it out later. Eventually.

Intro 00:8

E|---------------------------------------------------------------------------|
B|---------------------------------------------------------------------------|
G|---------------------------------------------------------------------------|
D|---------------------------------------------------------------------------|
A|--7--7-5---5--5------------------------------------------------------------|
E|---------7-------7-7-5--5-7-5--3-3-3—-2-3-2--------------------------------|

Same thing second time around except you push the last six notes into distortion but as power chords.

E|---------------------------------------------------------------------------|
B|---------------------------------------------------------------------------|
G|---------------------------------------------------------------------------|
D|-------------------------------5-5-5--4-5-4--------------------------------|
A|--7--7-5---5--5----------------5-5-5--4-5-4--------------------------------|
E|---------7-------7-7-5--5-7-5--3-3-3—-2-3-2--------------------------------|

Chorus 00:22
  
  The chorus is the same thing but as power chords and distortion.

          
E|---------------------------------------------------------------------------|
B|---------------------------------------------------------------------------|
G|--9--9-7-------------------------------------------------------------------|
D|--9--9-7-9-------9-9-7--7-9-7--5-5-5--4-5-4--------------------------------| X2
A|--7--7-5-9--5--5-9-9-7--7-9-7--5-5-5--4-5-4--------------------------------|
E|---------7-------7-7-5--5-7-5--3-3-3—-2-3-2--------------------------------|

This is the part where he starts to yell and the guitars stop in the background

E|---------------------------------------------------------------------------|
B|---------------------------------------------------------------------------|
G|---9--9-7----7-------------------------------------------------------------|
D|---9--9-7-9---7-------------------------7-9-7-5-5-5-4-5-4------------------|
A|---7--7-5-9---5-------------------------7 9-7-5-5-5-4-5-4------------------|
E|----------7-----------------------------5-7-5-3-3-3-2-3-2------------------|
The rhythm guitar just does the chorus till the end 

Outro 

E|---------------------------------------------------------------------------|
B|---------------------------------------------------------------------------|
G|--9--9-7-------------------------------------------------------------------|
D|--9--9-7-9-------9-9-7--7-9-7--5-5-5--4-5-4tr------------------------------| X2
A|--7--7-5-9--5--5-9-9-7--7-9-7--5-5-5--4-5-4tr------------------------------|
E|---------7-------7-7-5--5-7-5--3-3-3—-2-3-2tr------------------------------|

            
            
Suggest correction
Creating personal tab
Creating personal tab
You can edit any tab online and save it as your Personal.

You can edit, replace or remove any tab part or add personal notes – all changes will be seen only by you.

Personal tabs can be accessed anytime from any device, even offline.
Learn more »
Give kudos to tab author, rate the tab!
1 2 3 4 5
comments
print report bad tab
2 comments total.
0 reply
simmo 10 Feb 12, 2005 07:00 PM

the first solo goes a little something like this:

D------5-7-8-8-7-5-7-7-5-7-8-8-8-8-7-5---5-7-8-5---5-8-7-5-8-7-5-8-7
A--7-7---------------------------------7---------7------------------

D-5-8-8-8-8-7-5--
A---------------7

0 reply
simmo 10 Feb 12, 2005 07:00 PM

the first solo goes a little something like this:

D------5-7-8-8-7-5-7-7-5-7-8-8-8-8-7-5---5-7-8-5---5-8-7-5-8-7-5-8-7
A--7-7---------------------------------7---------7------------------

D-5-8-8-8-8-7-5--
A---------------7

guest
Wanna post a correction for this tab? Suggest correction