Oops, an error
Loading. Please wait.

Tell Me What You See Tab

version 1
version 1

Intro

Whole song

384 views 1 this week
1 commentread comment
1 2 3 4 5
2 more votes to show rating
add to favorites
launch autoscroll
font size
0
reset
how to read this tab
guitar tuner
×
Best way to learn
"Tell Me What You See"
Autoscroll
slow
fast
+/-
esc
set tempo
stop
Er, yeah, just the intro and the first bit, I think it's right. 

Intro
e|------------------------------------|
B|------------------------------------|
G|------------------------------------|
D|------------------------------------| about 4 or 5 times.
A|-----5-55---------------------------|
E|-0-00----5554444--------------------|


e|--------------------------------------|
B|--------------------------------------|
G|------3-33----------------------------| this goes on till the seconed
D|-2-22-3-33-333-2222-------------------| guitar comes in and in     
A|-2-22-5-55-333-2222-------------------| through most of the song
E|-0-00------555-4444-------------------|

Yeah, first tab, bullshit like that, sorry for anymistakes, and if its way
off, oh well. the timings a little off and things, but it should sound right.

By drunken_munkey_61@hotmail.com
Suggest correction
Give kudos to tab author, rate the tab!
1 2 3 4 5
comments
print report bad tab
1 comment total.
+1 reply
iworeurbra 10 Jun 17, 2004 08:00 PM

intro should be

A|-----5-55---------------------------|
E|-0-00----5553333b-------------------|

guest
You may want to rate the tab now too:
select rating
Wanna post a correction for this tab? Suggest correction