Oops, an error
Loading. Please wait.

Lighthouse Tab

version 1
version 1

Whole song

Interactive

17,771 views 45 this week
1 commentread comment
1 2 3 4 5
accurate
x 4
add to favorites
launch autoscroll
font size
0
reset
how to read this tab
guitar tuner
Tab Pro tools
  • play this tab
  • loop segment
  • change instrument
  • show fretboard
  • metronome
Autoscroll
slow
fast
+/-
esc
set tempo
stop
Contributor
-------------------------------------------------------------------------------
                             LightHouse - Waifs
-------------------------------------------------------------------------------
Tabbed by:Sam B, Special Thanks To Paul
Email:Samba679@hotmail.com


Intro/ Main riff/ Section A
   Am                                     C              G         Am
e|-3--0-------------------0-------0------------------------------------------|
B|-------3--1----3--1---------------1--3-1-----------------------------------|
G|-----------------------------------------2--------0------2-----------------|
D|----2-------2--------2------------2--------0----0--------2-----------------|
A|-0-----0-------0----------0--2--3----3-------------------0-----------------|
E|----------------------------------------------3----------------------------|

Section B
    G                             Am
e|--------------------3-------------v^--v^--v^--v^---------------------------|
B|--3---3-----3--3/5----5\3--1------v^--v^--v^--v^---------------------------|
G|----0-----0-----------------------v^--v^--v^--v^---------------------------|
D|--------0-------------------------v^--v^--v^--v^---------------------------|
A|---------------------------------0v^--v^-0v^--v^---------------------------|
E|--3------------3------------------v^-0v^--v^-0v^---------------------------|
    G                      E
e|--------------------------vv^^v--vv^^v-------------------------------------|
B|--3---3-----3--3-----0----vv^^v--vv^^v-------------------------------------|
G|----0-----0--------0------vv^^v--vv^^v-------------------------------------|
D|--------0--------0--------vv^^v--vv^^v-------------------------------------|
A|--------------------------vv^^v--vv^^v-------------------------------------|
E|--3------------3----------vv^^v--vv^^v-------------------------------------|

Section C
             Am                          Am   
e|------------v--------------------------v-----------------------------------|
B|------------v---------1p0--------------v-------1p0-------------------------|
G|------------v-------2-----2p0---0-2----v-----2----2p0----------------------|
D|------------v-----2-----------2--------v---2----------2-0-1/2--------------|
A|----------0-v---0--------------------0-v-0---------------------------------|
E|--3--4------v--------------------------v-----------------------------------|

     Am                      Am
e|---v-----------------------v-----------------------------------------------|
B|---v-------1p0-------------v----3-1-0--------------------------------------|
G|---v-----2-----2p0---0-2---v--0-------0-0-1-2-0----------------------------|
D|---v---2-----------2-------v-----------------------------------------------|
A|---v-0-------------------0-v-----------------------------------------------|
E|---v-----------------------v-----------------------------------------------|

Section D
   Dm              Am                    Dm
e|--vv^^v-vv^^v------v^---v^---v^---v^----vv^^v-vv^^v------------------------|
B|--vv^^v-vv^^v------v^---v^---v^---v^----vv^^v-vv^^v------------------------|
G|--vv^^v-vv^^v------v^---v^---v^---v^----vv^^v-vv^^v------------------------|
D|--vv^^v-vv^^v------v^---v^---v^---v^----vv^^v-vv^^v------------------------|
A|--vv^^v-vv^^v----0-v^---v^-0-v^---v^----vv^^v-vv^^v------------------------|
E|--vv^^v-vv^^v------v^-0-v^---v^-0-v^----vv^^v-vv^^v------------------------|

e|-7-5\3-0-3-0---------------------------------------------------------------|
B|-------------3-1-3-1---1---------------------------------------------------|
G|---------------------2---2p0-----------------------------------------------|
D|-----------------------------2p0-------------------------------------------|
A|---------------------------------------------------------------------------|
E|---------------------------------------------------------------------------|

Section E
Quietly:  Am                                C         G    Am
e|----------v---v---v---v---v---v---v---v-----v---v-----v-----v--------------|
B|o---------v---v---v---v---v---v---v---v-----v---v-----v-----v-------------o|
G|----------v---v---v---v---v---v---v---v-----v---v-----v-----v--------------|
D|----------v---v---v---v---v---v---v---v-----v---v-----v-----v--------------|
A|o-------0-v---v-0-v---v-0-v---v-0-v---v---3-v---v-----v---0-v-------------o|
E|----------v-0-v---v-0-v---v-0-v---v-0-v-----v-3-v---3-v-----v--------------|

Section F/ Outrun 
                                        Am
e|--7--5s3-0-3-3-------------------------3--0---------v----------------------|
B|---------------3-1-3-1---1-------------------3-1-3--v----------------------|
G|-----------------------2---2p0----------------------v----------------------|
D|-------------------------------2p0--------2---------v----------------------|
A|---------------------------------------0-----0------v----------------------|
E|----------------------------------------------------v----------------------|

Order Of Song:
Intro = Ax2, Ax5, B, Ax2, C, D, Ax2, E, A, B, Ax2, B, Ax4, Outrun/F


   Key/ Legand
| /  slide up
| \  slide down
| h  hammer-on
| p  pull-off
| ~  vibrato
| +  harmonic
| x  Mute note
|   
| ^  Up Strum
|
| v  Down strum
===============================================================================
comments
print report bad tab
1 comment total.
0 reply
samba679 wrote on November 14 2009, 10:52 pm

wow, i did this along time ago. just realised in the main riff goes like this:
e|-3--0-----------------0-------0------------------------
B|-------3--1----3--1-------------1--3-1-----------------
G|---------------------------------------2---------0---2-
D|----2-------2-------------------2--------0-----0-----2-
A|-0-----0-------0--------0--2--3----3-----------------0-
E|--------------------------------------------3----------

I want to post or [tab]
guest
You may want to rate the tab now too:
select rating
Please do not post tabs as comments. Select "correction" instead!