Oops, an error
Loading. Please wait.

Woe Is Me tab

version 1
version 1

Whole song

4,355 views 1 this week
1 commentread comment
1 2 3 4 5
2 more votes to show rating
add to favorites
×
Save as Personal and add changes to this tab that will be seen only by you. Learn more ›
×
You can save this tab as Personal to edit and correct it or add notes. All changes will be seen only by you. Learn more »
launch autoscroll
font size
0
reset
how to read this tab
guitar tuner
edit
Autoscroll
slow
fast
+/-
esc
set tempo
stop
Author
The Walkmen - Woe Is Me


Intro / Verse (Repeat as many times as necessary)

e|----7-----11---9--9--------9--9------9--9--------|
B|--------------------9-9---------9-9-------9-9----|
G|--8----11-------------9-----------9---------9----|
D|-------------------------------------------------|
A|-------------------------------------------------|
E|-------------------------------------------------|


Chorus

Woe is me.....

e|--X--9-----|
B|--7--9-----|     Listen to the song to work out how many times to play
G|--8--9-----|     each chord - easy to figure out!!
D|--9--11----|
A|--9--11----|
E|--X--9-----|


Then repeat the verse as many times as needed. 
I have left out the bridge and outro!!

            
            
Suggest correction
Creating personal tab
Creating personal tab
You can edit any tab online and save it as your Personal.

You can edit, replace or remove any tab part or add personal notes – all changes will be seen only by you.

Personal tabs can be accessed anytime from any device, even offline.
Learn more »
Give kudos to tab author, rate the tab!
1 2 3 4 5
comments
print report bad tab
1 comment total.
0 reply
sok182 73 Feb 25, 2011 09:56 AM

OUTRO 1:
e|---------------|-----------------------|
B|--7------------|--7--------------------|
G|-8-8-9-9-9-9-9-|-8-8-9-11-11-11-11-11--|
D|---------------|-----------------------|
A|---------------|-----------------------|
E|---------------|-----------------------|

OUTRO 2:
e|-------------------|
B|-9-7-5-7-5-4-5--7--|
G|-------------------|Repeat as many times as necessary
D|-------------------|
A|-------------------|
E|-------------------|
on and on...

Good tab! :)

guest
You may want to rate the tab now too:
select rating
Wanna post a correction for this tab? Suggest correction