Oops, an error
Loading. Please wait.

Big Fan tab

28 views 1 this week
no commentswrite comment
1 2 3 4 5
3 more votes to show rating
add to favorites
×
Save as Personal and add changes to this tab that will be seen only by you. Learn more ›
×
You can save this tab as Personal to edit and correct it or add notes. All changes will be seen only by you. Learn more »
launch autoscroll
font size
0
reset
how to read this tab
guitar tuner
edit
Autoscroll
slow
fast
+/-
esc
set tempo
stop
Wannadies - Big Fan


[Intro]

     D               B (guitar 2 comes in with delay effect)
e|-------------------------------------------------|
B|-------------------------------------------------|
G|---7-7-7-7-7-7-7-7-4-4-4-4-4-4-4-4---------------| 
D|---7-7-7-7-7-7-7-7-4-4-4-4-4-4-4-4---------------|
A|---5-5-5-5-5-5-5-5-2-2-2-2-2-2-2-2---------------|
E|-------------------------------------------------|(x2)

  (guitar one plays chords)
     B     A     D     B     A     D
e|-------------------------------------------------|
B|-------------2-----------------2-----------------|
G|---------2-----2-----------2-----2---------------|
D|-------0-----------------0-----------------------|
A|---2-4---------------2-4-------------------------|
E|-------------------------------------------------|(Riff 1)

  B          A     D   B          A        D
  come a bit closer, i can't get enough of you
       B          A         D
  it's always the same, the same, no game
       B       A       G      E
  like so many times before

e|-------------------------------------------------|
B|-------------------------------------------------|
G|---------------6^--------------------------------|
D|--------------------------------7^---------------|
A|-------------------------------------------------|
E|-------------------------------------------------|
  i can't help it, oh let me go on

e|-------------------------------------------------|
B|-------------------------------------------------|
G|------------------6^-----------------------------|
D|-----------------------------------3^------------|
A|-------------------------------------------------|
E|-------------------------------------------------|
  i've got to get it, got to get some

e|-------------------------------------------------|
B|-------------------------------------------------|
G|------------------6^-----------------------------|
D|-------------------------------------------------|
A|-------------------------------------------------|
E|-------------------------------------------------|

  i want to be where, ever you're from
        G         F#     E
  cause i'm a big fan of you

  guitar 1 plays chords

  F# (high)        D               F#
e|-------------------------------------------------|
B|-------------------------------------------------|
G|-------------------------------------------------|
D|-4-4-4-4-4-4-4/7-5-5-5-5-5-5-5/2-----------------|
A|-------------------------------------------------|
E|-------------------------------------------------|

  who's     in a   most peculiar   dream?
            D             F#
  spreading happiness for free?
       D
  it's you, it's you, it's you
  F#         D             F#
  who's in a most peculiar dream?
          D            F#
  selling anything for free?
       D                       B  A  D (guitar 2 plays riff 1)
  it's you, it's you, it's you 
                        B  A  D
  oh it's you, it's you
  B          A     D B            A         D
  come a bit harder, turn off the light and go
    B          A         D
  i might be insane, the same, the same
      B       A        G
  whatever to keep the flow

e|-------------------------------------------------|
B|-------------------------------------------------|
G|---------------6^--------------------------------|
D|----------------------------------------7^-------|
A|-------------------------------------------------|
E|-------------------------------------------------|
  i can't help it, you're so good it hurts

e|-------------------------------------------------|
B|-------------------------------------------------|
G|------------------6^-----------------------------|
D|----------------------------------------3^-------|
A|-------------------------------------------------|
E|-------------------------------------------------|
   its like magic,   or some kind of curse

e|-------------------------------------------------|
B|-------------------------------------------------|
G|------------------6^-----------------------------|
D|-------------------------------------------------|
A|-------------------------------------------------|
E|-------------------------------------------------|

  i want to be where, ever you are
        G         F#     E
  cause i'm a big fan of you
  F#         D             F#
  who's in a most peculiar dream?
            D             F#
  spreading happiness for free?
       D                   F#
  it's you, it's you, it's you
             D             F#
  who's in a most peculiar dream?
          D            F#
  selling anything for free?
       D                       B  A  D (guitar 2 plays riff 1)
  it's you, it's you, it's you 
                        B  A  D
  oh it's you, it's you
                        B  A  D
  oh it's you, it's you
                        B  A  G
  oh it's you, it's you

e|-2----------2-------------2----------------------|
B|-2----------3-------------2----------------------|
G|-3----------2-------------3----------------------|
D|-4----------0-------------4----------------------|
A|-------------------------------------------------|
E|-------------------------------------------------|
   who's in a most peculiar dream?

e|------------2-------------2----------------------|
B|------------3-------------2----------------------|
G|------------2-------------3----------------------|
D|------------0-------------4----------------------|
A|-------------------------------------------------|
E|-------------------------------------------------|

    spreading happiness for free?
       G
  it's you and you know it

  B  A  D  (x4) (guitar 2 plays riff 1)

  F# (high)  D             F#
  who's in a most peculiar dream?
            D             F#
  spreading happiness for free?
       D                   F#
  it's you, it's you, it's you
             D             F#
  who's in a most peculiar dream?
          D            F#
  selling anything for free?
       D                   B  A  D (guitar 2 plays riff 1)
  it's you, it's you, it's you
                    B  A  D
  oh it's you, it's you
                    B  A  D
  oh it's you, it's you
                    B  A  G



************************************

| r  Release
| t  Tapping
| /  Slide up
| ^  bend 

************************************
Suggest correction
Creating personal tab
Creating personal tab
You can edit any tab online and save it as your Personal.

You can edit, replace or remove any tab part or add personal notes – all changes will be seen only by you.

Personal tabs can be accessed anytime from any device, even offline.
Learn more »
Give kudos to tab author, rate the tab!
1 2 3 4 5
comments
print report bad tab
guest
You may want to rate the tab now too:
select rating
Wanna post a correction for this tab? Suggest correction