Oops, an error
Loading. Please wait.

I Love Myself tab

4 views 1 this week
no commentswrite comment
1 2 3 4 5
3 more votes to show rating
add to favorites
×
Save as Personal and add changes to this tab that will be seen only by you. Learn more ›
×
You can save this tab as Personal to edit and correct it or add notes. All changes will be seen only by you. Learn more »
launch autoscroll
font size
0
reset
how to read this tab
guitar tuner
edit
Autoscroll
slow
fast
+/-
esc
set tempo
stop
[Intro/Chorus]

 guitar 1
e|-------------------------------------------------|
B|-------------------------------------------------|
G|-------------------------------------------------|
D|-5-5-x-3-3-3-x-8-7-6-5-x-x-5-5-x-3-3-3-x-8-7-6-5-|
A|-5-5-x-3-3-3-x-8-7-6-5-x-x-5-5-x-3-3-3-x-8-7-6-5-|
E|-3-3-x-1-1-1-x-6-5-4-3-x-x-3-3-x-1-1-1-x-6-5-4-3-|


 guitar 2
e|--------------------------------------------------|
B|--------------------------------------------------|
G|---------------------------7-7-x-5-5-5-x-10-9-8-7-|
D|---------------------------7-7-x-5-5-5-x-10-9-8-7-|
A|---------------------------5-5-x-3-3-3-x-8--7-6-5-|
E|--------------------------------------------------|
                                              Yeah!

 guitars w/heavy distortion
e|-------------------------------------------------|
B|-------------------------------------------------|
G|-------------------------------------------------|
D|-5-5-x-3-3-3-x-8-7-6-5-x-x-5-5-x-3-3-3-x-8-7-6-5-|
A|-5-5-x-3-3-3-x-8-7-6-5-x-x-5-5-x-3-3-3-x-8-7-6-5-|
E|-3-3-x-1-1-1-x-6-5-4-3-x-x-3-3-x-1-1-1-x-6-5-4-3-|(x2)


[Verse]

 guitar 1
e|-------------------------------------------------|
B|-------------------------------------------------|
G|-------5---------------5-------------------------|
D|5------5-------5-------5-------------------------|  
A|5------3-------5-------3-------------------------|
E|3--------------3---------------------------------|(x2)


 guitar 2
e|-------------------------------------------------|
B|-------------------------------------------------|
G|-------------------------------------------------|
D|---5-------5-------5-------5---------------------|  
A|-5---5---5---5---5---5---5---5-------------------|
E|-------3-------3-------3-------3-----------------|(x2)


G|-------------------------------------------------|
D|-------------------------------------------------|
A|--------------3-------------------------6--------|
E|--3-----------------------6----------------------|
     I          won't       always do the right thing


G|-------------------------------------------------|
D|-------------------------------------------------|
A|--------------3-------------------------6--------|
E|--3-----------------------6----------------------|
     When I'm alone,        no-one ever   disagrees


 guitar 1
e|-------------------------------------------------|
B|-------------------------------------------------|
G|--------------------------8-------7--------------|
D|--8-----------------------8-------7--------5-----| (not sure about those two middle chords)
A|--8-----------------------6-------5--------5-----|
E|--6----------------------------------------3-----|
      Goddamn               I'm one handsome man


 guitar 1
e|-------------------------------------------------|
B|-------------------------------------------------|
G|---------------5------------------------8--------|
D|--5------------5-----------8------------8--------|
A|--5------------3-----------8------------6--------|
E|--3------------------------6---------------------|
     You're  a   star,   I know you quite like me


 guitar 1
e|-------------------------------------------------|
B|-------------------------------------------------|
G|---------------5------------------------8--------|
D|--5------------5-----------8------------8--------|
A|--5------------3-----------8------------6--------|
E|--3------------------------6---------------------|
     You make me hard,   but baby you're  not me


 guitars
e|-------------------------------------------------|
B|-------------------------------------------------|
G|-------------------------------------------------|
D|--8-----------8------------8------------8--------|
A|--8-----------8------------8------------8--------|
E|--6-----------6------------6------------6--------|
     No         bod   -      y,      will love me


 guitars
e|-------------------------------------------------|
B|-------------------------------------------------|
G|-------------------------------------------------|
D|--8-----------8------------x-x-x-x-x-------------|
A|--8-----------8------------x-x-x-x-x-------------|
E|--6-----------6------------x-x-x-x-x-------------|
     more       than         I do!


[Chorus]

 guitars w/heavy distortion
e|----------------------------------------------------------------|
B|----------------------------------------------------------------|
G|----------------------------------------------------------------|
D|--5----5----x----3----3----3----x----8----7----6----5----x----x-|
A|--5----5----x----3----3----3----x----8----7----6----5----x----x-|
E|--3----3----x----1----1----1----x----6----5----4----3----x----x-|
              I'm                 in   love with my - self


e|----------------------------------------------------------------|
B|----------------------------------------------------------------|
G|----------------------------------------------------------------|
D|--5----5----x----3----3----3----x----8----7----6----5----x----x-|
A|--5----5----x----3----3----3----x----8----7----6----5----x----x-|
E|--3----3----x----1----1----1----x----6----5----4----3----x----x-|
              I'm                 in   love with my - self


e|----------------------------------------------------------------|
B|----------------------------------------------------------------|
G|----------------------------------------------------------------|
D|--5----5----x----3----3----3----x----8----7----6----5----x----x-|
A|--5----5----x----3----3----3----x----8----7----6----5----x----x-|
E|--3----3----x----1----1----1----x----6----5----4----3----x----x-|
     Oh yeah!       Oh yeah!           I    love my - self


e|----------------------------------------------------------------|
B|----------------------------------------------------------------|
G|----------------------------------------------------------------|
D|--5----5----x----3----3----3----x----8----7----6----5----x----x-|
A|--5----5----x----3----3----3----x----8----7----6----5----x----x-|
E|--3----3----x----1----1----1----x----6----5----4----3----x----x-|
     Oh yeah!       Oh yeah!           I    love my - self


[Verse]

 guitar 1
e|-------------------------------------------------|
B|-------------------------------------------------|
G|-------5---------------5-------------------------|
D|5------5-------5-------5-------------------------| 
A|5------3-------5-------3-------------------------|
E|3--------------3---------------------------------|(x2)


 guitar 2
e|-------------------------------------------------|
B|-------------------------------------------------|
G|-------------------------------------------------|
D|---5-------5-------5-------5---------------------|  
A|-5---5---5---5---5---5---5---5-------------------|
E|-------3-------3-------3-------3-----------------|(x2)


G|-------------------------------------------------|
D|-------------------------------------------------|
A|--------------3-------------------------6--------|
E|--3-----------------------6----------------------|
     I          won't       never     disappoint me


G|-------------------------------------------------|
D|-------------------------------------------------|
A|--------------3-------------------------6--------|
E|--3-----------------------6----------------------|
     When I'm alone,        lookin' in the mirror


 guitar 1
e|-------------------------------------------------|
B|-------------------------------------------------|
G|-----------------------8----------7--------------|
D|--8--------------------8----------7--------5-----|
A|--8--------------------6----------5--------5-----|
E|--6----------------------------------------3-----|
      God oh my!         That's one pretty sight!


 guitar 1
e|-------------------------------------------------|
B|-------------------------------------------------|
G|---------------5------------------------8--------|
D|--5------------5-----------8------------8--------|
A|--5------------3-----------8------------6--------|
E|--3------------------------6---------------------|
     You're  a   charm,  but not  enough  for me


 guitar 1
e|-------------------------------------------------|
B|-------------------------------------------------|
G|---------------5------------------------8--------|
D|--5------------5-----------8------------8--------|
A|--5------------3-----------8------------6--------|
E|--3------------------------6---------------------|
     When I'm  alone,        no-one ever  disagrees


 guitars
e|-------------------------------------------------|
B|-------------------------------------------------|
G|-------------------------------------------------|
D|--8-----------8------------8------------8--------|
A|--8-----------8------------8------------8--------|
E|--6-----------6------------6------------6--------|
     No         bod   -      y,      will love me


 guitars
e|-------------------------------------------------|
B|-------------------------------------------------|
G|-------------------------------------------------|
D|--8-----------8------------x-x-x-x-x-------------|
A|--8-----------8------------x-x-x-x-x-------------|
E|--6-----------6------------x-x-x-x-x-------------|
     more       than         I do!


[Chorus]

 guitars w/heavy distortion
e|----------------------------------------------------------------|
B|----------------------------------------------------------------|
G|----------------------------------------------------------------|
D|--5----5----x----3----3----3----x----8----7----6----5----x----x-|
A|--5----5----x----3----3----3----x----8----7----6----5----x----x-|
E|--3----3----x----1----1----1----x----6----5----4----3----x----x-|
              I'm                 in   love with my - self


e|----------------------------------------------------------------|
B|----------------------------------------------------------------|
G|----------------------------------------------------------------|
D|--5----5----x----3----3----3----x----8----7----6----5----x----x-|
A|--5----5----x----3----3----3----x----8----7----6----5----x----x-|
E|--3----3----x----1----1----1----x----6----5----4----3----x----x-|
              I'm                 in   love with my - self


e|----------------------------------------------------------------|
B|----------------------------------------------------------------|
G|----------------------------------------------------------------|
D|--5----5----x----3----3----3----x----8----7----6----5----x----x-|
A|--5----5----x----3----3----3----x----8----7----6----5----x----x-|
E|--3----3----x----1----1----1----x----6----5----4----3----x----x-|
     Oh yeah!       Oh yeah!           I    love my - self


e|----------------------------------------------------------------|
B|----------------------------------------------------------------|
G|----------------------------------------------------------------|
D|--5----5----x----3----3----3----x----8----7----6----5----x----x-|
A|--5----5----x----3----3----3----x----8----7----6----5----x----x-|
E|--3----3----x----1----1----1----x----6----5----4----3----x----x-|
     Oh yeah!       Oh yeah!           I    love my - se        -


e|----------------------------------------------------------------|
B|----------------------------------------------------------------|
G|-----------------5----5----5----3----5--------------------------|
D|--5----5----5----5----5----5----3----5---------5----5----5----x-|
A|--5----5----5----3----3----3----1----3---------5----5----5----x-|
E|--3----3----3----------------------------------3----3----3----x-|
      -            lf                            I    love   my


e|----------------------------------------------------------------|
B|----------------------------------------------------------------|
G|-----------------5----5----5----3----5--------------------------|
D|--5----5----5----5----5----5----3----5---------5----5-----------|
A|--5----5----5----3----3----3----1----3---------5----5-----------|
E|--3----3----3----------------------------------3----3-----------|
    se      -      lf.                        oooooooow!



 guitar 1
e|------------------------------------------------------------------------|
B|------------------------------------------------------------------------|
G|------------------------------------------------------------------------|
D|--------------------2-2-3-3-5(let ring)-------------2-2-3-3-5(let ring)-|
A|--------2-2-3-3-5-5---------------------2-2-3-3-5-5---------------------|
E|--3-3-3---------------------------3-3-3---------------------------------|


 guitar 1
e|------------------------------------------------------------------------|
B|------------------------------------------------------------------------|
G|------------------------------------------------------------------------|
D|--------------------2-2-3-3-5(let ring)-------------2-2-3-3-5(let ring)-|
A|--------2-2-3-3-5-5---------------------2-2-3-3-5-5---------------------|
E|--3-3-3---------------------------3-3-3---------------------------------|
     whatever you say   whatever     whatever you say   whatever
              whatever you say                whatever you say



 guitar 1
e|----------------------------------------------------------------|
B|----------------------------------------------------------------|
G|----------------------------------------------------------------|
D|--------------------2-2-3-3-5-----2-2-2-3-3-4-4-5-5-6-6-7-------|
A|--------2-2-3-3-4-4---------------------------------------------|
E|--3-3-3---------------------------------------------------------|
     whatever you say   whatever      whatever you say   whatever
              whatever you say                whatever you say


[Chorus]

 guitars w/heavy distortion
e|----------------------------------------------------------------|
B|----------------------------------------------------------------|
G|----------------------------------------------------------------|
D|--5----5----x----3----3----3----x----8----7----6----5----x----x-|
A|--5----5----x----3----3----3----x----8----7----6----5----x----x-|
E|--3----3----x----1----1----1----x----6----5----4----3----x----x-|
              I'm                 in   love with my - self


e|----------------------------------------------------------------|
B|----------------------------------------------------------------|
G|----------------------------------------------------------------|
D|--5----5----x----3----3----3----x----8----7----6----5----x----x-|
A|--5----5----x----3----3----3----x----8----7----6----5----x----x-|
E|--3----3----x----1----1----1----x----6----5----4----3----x----x-|
              I'm                 in   love with my - self


e|----------------------------------------------------------------|
B|----------------------------------------------------------------|
G|----------------------------------------------------------------|
D|--5----5----x----3----3----3----x----8----7----6----5----x----x-|
A|--5----5----x----3----3----3----x----8----7----6----5----x----x-|
E|--3----3----x----1----1----1----x----6----5----4----3----x----x-|
     Oh yeah!       Oh yeah!           I    love my - self


e|----------------------------------------------------------------|
B|----------------------------------------------------------------|
G|----------------------------------------------------------------|
D|--5----5----x----3----3----3----x----8----7----6----5----x----x-|
A|--5----5----x----3----3----3----x----8----7----6----5----x----x-|
E|--3----3----x----1----1----1----x----6----5----4----3----x----x-|
     Oh yeah!       Oh yeah!           I    love my - se        -


e|----------------------------------------------------------------|
B|----------------------------------------------------------------|
G|----------------------------------------------------------------|
D|--5----5----x----3----3----3----x----8----7----6----5----x----x-|
A|--5----5----x----3----3----3----x----8----7----6----5----x----x-|
E|--3----3----x----1----1----1----x----6----5----4----3----x----x-|
          -                 lf!        I    love my - se        -


e|----------------------------------------------------------------|
B|----------------------------------------------------------------|
G|----------------------------------------------------------------|
D|--5----5----x----3----3----3----x----8----7----6----5----x----x-|
A|--5----5----x----3----3----3----x----8----7----6----5----x----x-|
E|--3----3----x----1----1----1----x----6----5----4----3----x----x-|
          -                 lf!        I    love my - se   -   lf


e|----------------------------------------------------------------|
B|----------------------------------------------------------------|
G|----------------------------------------------------------------|
D|--5----5----x----3----3----3----x----8----7----6----5----x----x-|
A|--5----5----x----3----3----3----x----8----7----6----5----x----x-|
E|--3----3----x----1----1----1----x----6----5----4----3----x----x-|
     Oh yeah!       Oh yeah!           I    love my - self    


e|----------------------------------------------------------------|
B|----------------------------------------------------------------|
G|----------------------------------------------------------------|
D|--5----5----x----3----3----3----x----8----7----6----5----x----x-|
A|--5----5----x----3----3----3----x----8----7----6----5----x----x-|
E|--3----3----x----1----1----1----x----6----5----4----3----x----x-|
     Oh yeah!       Oh yeah!



************************************

| x  Dead note
| r  Release
| t  Tapping
| s  slide

************************************

            
            
Suggest correction
Creating personal tab
Creating personal tab
You can edit any tab online and save it as your Personal.

You can edit, replace or remove any tab part or add personal notes – all changes will be seen only by you.

Personal tabs can be accessed anytime from any device, even offline.
Learn more »
Give kudos to tab author, rate the tab!
1 2 3 4 5
comments
print report bad tab
guest
You may want to rate the tab now too:
select rating
Wanna post a correction for this tab? Suggest correction