Oops, an error
Loading. Please wait.

Yeah chords

43 views 6 this week
no commentswrite comment
1 2 3 4 5
3 more votes to show rating
add to favorites
×
Save as Personal and add changes to this tab that will be seen only by you. Learn more ›
×
You can save this tab as Personal to edit and correct it or add notes. All changes will be seen only by you. Learn more »
launch autoscroll
font size
0
reset
transpose
0
reset
display chords
guitar tuner
edit
Autoscroll
slow
fast
+/-
esc
set tempo
stop
Strumming
There is no strumming pattern for this song yet. and get +5 IQ
Wannadies - Yeah
Tuning: standard.
No Capo.


[Intro]

e|------8-----6--------------8-----6---------------|
B|---------------4--6-----------------4--6---------|
G|---5-----3-----------5--5-----3------------------|
D|-------------------------------------------------|
A|-------------------------------------------------|
E|-------------------------------------------------|


e|-------------------------------------------------|
B|-------------------------------------------------|
G|-------------------------------------------------|
D|-------------------------------------------------|
A|-------------------------------------------------|
E|------------------------5--6--5--6---------------|


[Verse 1]

We're sittin' on a spaceball lookin' smart!
C  A - A# - A - A#   (then slide down and mute the strings)
Making babies, breaking hearts!
C  A - A# - A - A#   (slide as before)

D#      F (high) A#       C
wasted, maybe,  we don't care!
       D#              F (high)    A#     C
we are just a bunch of kids but we have a plan
        D#                       F (high)
we're a customised breed for the next century!

  C
  yeah!

G|----5-----3-----------5-----3--------------------|
D|-------------3--5--------------3--5--------------|
A|-------------------3-----------------3-----------|
E|-------------------------------------------------|
                                         yeah!

[Chorus]

  C       A#-F-G    C       A#-F-G
     have a-no-ther one!
  C       A#-F-G    C       A#-F-G
     have more of all
  D#              F (high) D#-A#
     never-ending fun!
  C       A#-F-G    C       A#-F-G
     have a-no-ther one!
  C       A#-F-G    C       A#-F-G
     have more of all
  D#              F (high) D#-A#
     never-ending fun!

  C       A#-F-G    C       A#-F-G

  D#              F (high) D#-A#
     have another one!

         

[Verse 2]

  if you want to come along, want to have some fun!
  C  A - A# - A - A#   (slide down)
  we know where the night is young!
  C  A - A# - A - A#   (slide)

  D#      F (high) A#      C
  finger, licking, licking hard!
         D#              F (high)       A#      C
  we are just a bunch of kids but we're growing up!
          D#                             F (high)
  we're a wealthy young breed, we're the evil seed!

  C
  yeah!
  (bass riff)
  yeah!


[Chorus]

  C       A#-F-G    C       A#-F-G
     have a-no-ther one!
  C       A#-F-G    C       A#-F-G
     have more of all
  D#              F (high) D#-A#
     never-ending fun!
  C       A#-F-G    C       A#-F-G
     have a-no-ther one!
  C       A#-F-G    C       A#-F-G
     have more of all
  D#              F (high) D#-A#
     never-ending fun!

  C       A#-F-G    C       A#-F-G

  D#              F (high) D#-A#
     have another one!

            
            
Suggest correction
Creating personal tab
Creating personal tab
You can edit any tab online and save it as your Personal.

You can edit, replace or remove any tab part or add personal notes – all changes will be seen only by you.

Personal tabs can be accessed anytime from any device, even offline.
Learn more »
Give kudos to tab author, rate the tab!
1 2 3 4 5
comments
print report bad tab
guest
You may want to rate the tab now too:
select rating
Wanna post a correction for this tab? Suggest correction