Oops, an error
Loading. Please wait.

Chasing The Sun tab

version 1
version 1

Whole song

15,544 views 1 this week
no commentswrite comment
1 2 3 4 5
x 11
add to favorites
×
Save as Personal and add changes to this tab that will be seen only by you. Learn more ›
×
You can save this tab as Personal to edit and correct it or add notes. All changes will be seen only by you. Learn more »
launch autoscroll
font size
0
reset
how to read this tab
guitar tuner
edit
Autoscroll
slow
fast
+/-
esc
set tempo
stop
-------------------------------------------------------------------------------
                             CHASING THE SUN - The Wanted
-------------------------------------------------------------------------------
Tabbed by: Unossofrus
E-mail: unossofrus@gmail.com

UPDATE - New Chorus tab and i have recently worked out it is actually played
 in a higher key. Instead of changing the tab completely have a CAPO on the
 3rd fret

This song works well with a bass guitar playing the intro riff throughout 
the song as well as the main guitar bit (song isn’t actually played on the 
guitar but I’ve adapted the singing melody for the guitar)

Be aware that a capo and a bass guitar don’t really work well together so 
you may need to adapt the guitar part

INTRO:

e|---------------------------------------------------------------------------|
B|---------------------------------------------------------------------------|
G|---------------------------------------------------------------------------|
D|-----------------------------------------0---------------------------------|
A|---------------------------0-2---2-2-2-2---0---0-0-0-0---------------------|
E|-0---0-0-0-0-2-3---3-3-3-3-----------------------------3-2-----------------|

Repeat 2 times

VERSE

e|---------------------------------------------------------------------------|
B|---------------------------------------------------------------------------|
G|---------------------------------------------------------------------------|
D|---------------------------------------------------------------------------|
A|---------------------------------------------------------------------------|
E|-0-3---0---0-0-3-2-0---0-0-0-3---0-0-3---0-0-3-2-0-------------------------|

 Repeat 2 times

e|---------------------------------------------------------------------------|
B|---------------------------------------------------------------------------|
G|---------------------------------------------------------------------------|
D|-----------------------------------------0---------------------------------|
A|---------------------------0-2---2-2-2-2---0---0-0-0-0---------------------|
E|-0---0-0-0-0-2-3---3-3-3-3-----------------------------3-2-----------------|

Repeat 2 times

CHORUS:

e|---------------------------------------------------------------------------|
B|---------------------------------------------------------------------------|
G|---------------------------------------------------------------------------|
D|-----------------------------------------0---------------------------------|
A|---------------------------0-2---2-2-2-2---0---0-0-0-0---------------------|
E|-0---0-0-0-0-2-3---3-3-3-3-----------------------------3-2-----------------|

Repeat 2 times

e|---------------------------------------------------------------------------|
B|---------------------------------------------------------------------------|
G|---------------------------------------------------------------------------|
D|-0---0---0-------0-0-0-0-0-0-2-0-0-0---------------------------------------|
A|-------------0-----------------------2-0-0---------------------------------|
E|---------------------------------------------------------------------------|

e|---------------------------------------------------------------------------|
B|---------------------------------------------------------------------------|
G|---------------------------------------------------------------------------|
D|-------0---0---0-------0-0-0-0-0-0-0-2-0-0-0-------------------------------|
A|-------------------0-------------------------2-0---0-0-0-0-----------------|
E|-0-2-3-----------------------------------------------------3-2-0-----------|

VERSE

e|---------------------------------------------------------------------------|
B|---------------------------------------------------------------------------|
G|---------------------------------------------------------------------------|
D|---------------------------------------------------------------------------|
A|---------------------------------------------------------------------------|
E|-0-3---0---0-0-3-2-0---0-0-0-3---0-0-3---0-0-3-2-0-------------------------|

 Repeat 2 times

e|---------------------------------------------------------------------------|
B|---------------------------------------------------------------------------|
G|---------------------------------------------------------------------------|
D|-----------------------------------------0---------------------------------|
A|---------------------------0-2---2-2-2-2---0---0-0-0-0---------------------|
E|-0---0-0-0-0-2-3---3-3-3-3-----------------------------3-2-----------------|

Repeat 2 times

BIT BEFORE CHORUS

e|---------------------------------------------------------------------------|
B|---------------------------------------------------------------------------|
G|---------------------------------------------------------------------------|
D|---------------------------------------------------------------------------|
A|---------------------------------------0-0-0-0-----------------------------|
E|-0---3-0---3-0---3-0---3-0---3-0---3-0---------3-2-------------------------|

CHORUS:

e|---------------------------------------------------------------------------|
B|---------------------------------------------------------------------------|
G|---------------------------------------------------------------------------|
D|-----------------------------------------0---------------------------------|
A|---------------------------0-2---2-2-2-2---0---0-0-0-0---------------------|
E|-0---0-0-0-0-2-3---3-3-3-3-----------------------------3-2-----------------|

Repeat 2 times

e|---------------------------------------------------------------------------|
B|---------------------------------------------------------------------------|
G|---------------------------------------------------------------------------|
D|-0---0---0-------0-0-0-0-0-0-2-0-0-0---------------------------------------|
A|-------------0-----------------------2-0-0---------------------------------|
E|---------------------------------------------------------------------------|

e|---------------------------------------------------------------------------|
B|---------------------------------------------------------------------------|
G|---------------------------------------------------------------------------|
D|-------0---0---0-------0-0-0-0-0-0-0-2-0-0-0-------------------------------|
A|-------------------0-------------------------2-0---0-0-0-0-----------------|
E|-0-2-3-----------------------------------------------------3-2-------------|

BRIDGE: (Play Quietly)

e|---------------------------------------------------------------------------|
B|---------------------------------------------------------------------------|
G|---------------------------------------------------------------------------|
D|-----------------------------------------0---------------------------------|
A|---------------------------0-2---2-2-2-2---0---0-0-0-0---------------------|
E|-0---0-0-0-0-2-3---3-3-3-3-----------------------------3-2-----------------|

Repeat 2 times

BIT BEFORE CHORUS:

e|---------------------------------------------------------------------------|
B|---------------------------------------------------------------------------|
G|---------------------------------------------------------------------------|
D|---------------------------------------------------------------------------|
A|---------------------------------------0-0-0-0-----------------------------|
E|-0---3-0---3-0---3-0---3-0---3-0---3-0---------3-2-------------------------|

FINAL CHORUS:

e|---------------------------------------------------------------------------|
B|---------------------------------------------------------------------------|
G|---------------------------------------------------------------------------|
D|-0---0---0-------0-0-0-0-0-0-2-0-0-0---------------------------------------|
A|-------------0-----------------------2-0-0---------------------------------|
E|---------------------------------------------------------------------------|

e|---------------------------------------------------------------------------|
B|---------------------------------------------------------------------------|
G|---------------------------------------------------------------------------|
D|-------0---0---0-------0-0-0-0-0-0-0-2-0-0-0-------------------------------|
A|-------------------0-------------------------2-0---0-0-0-0-----------------|
E|-0-2-3-----------------------------------------------------3-2-------------|

e|---------------------------------------------------------------------------|
B|---------------------------------------------------------------------------|
G|---------------------------------------------------------------------------|
D|-----------------------------------------0---------------------------------|
A|---------------------------0-2---2-2-2-2---0---0-0-0-0---------------------|
E|-0---0-0-0-0-2-3---3-3-3-3-----------------------------3-2-----------------|

Repeat last part 2 times
end on :

A|-0--------------------|

            
            
Suggest correction
Creating personal tab
Creating personal tab
You can edit any tab online and save it as your Personal.

You can edit, replace or remove any tab part or add personal notes – all changes will be seen only by you.

Personal tabs can be accessed anytime from any device, even offline.
Learn more »
comments
print report bad tab
guest
You may want to rate the tab now too:
select rating
Wanna post a correction for this tab? Suggest correction