Oops, an error
Loading. Please wait.

Chasing The Sun ukulele

version 2
version 2

Whole song

52 views 1 this week
no commentswrite comment
1 2 3 4 5
3 more votes to show rating
add to favorites
×
Save as Personal and add changes to this tab that will be seen only by you. Learn more ›
×
You can save this tab as Personal to edit and correct it or add notes. All changes will be seen only by you. Learn more »
launch autoscroll
font size
0
reset
transpose
0
reset
display chords
guitar tuner
edit
Autoscroll
slow
fast
+/-
esc
set tempo
stop
Author
Strumming
There is no strumming pattern for this song yet. and get +5 IQ
Given the popularity of my Guitar and bass tabs for this, it only seems right that I should 
transcribe it for the ukulele

Please note, there is no ukulele or guitar part for this song, this is just the vocal melody 
merged with the bass part

I admit, I'm no good with timings but 11 five star ratings on my guitar tab proves that people 
know what it means

Intro:

A|-------------0-1---1-1-1-1-3-5---5-5-5-5-8-3---3-3-3-3-1-0-----------------|
E|-3---3-3-3-3---------------------------------------------------------------|
C|---------------------------------------------------------------------------|
G|---------------------------------------------------------------------------|

Repeat 2 times

Verse:

A|-----1---------1-0-----------1-------1-------1-0---------------------------|
E|-3-----3---3-3-----3---3-3-3-----3-3-----3-3-----3-------------------------|
C|---------------------------------------------------------------------------|
G|---------------------------------------------------------------------------|

Repeat 2 times

A|-------------0-1---1-1-1-1-3-5---5-5-5-5-8-3---3-3-3-3-1-0-----------------|
E|-3---3-3-3-3---------------------------------------------------------------|
C|---------------------------------------------------------------------------|
G|---------------------------------------------------------------------------|

Repeat 2 times

Chorus:

A|-------------0-1---1-1-1-1-3-5---5-5-5-5-8-3---3-3-3-3-1-0-----------------|
E|-3---3-3-3-3---------------------------------------------------------------|
C|---------------------------------------------------------------------------|
G|---------------------------------------------------------------------------|

Repeat 2 times

A|-8---8---8---3---8-8-8-8-8-8-10-8-8-8-5-3-3--------------------------------|
E|---------------------------------------------------------------------------|
C|---------------------------------------------------------------------------|
G|---------------------------------------------------------------------------|

A|---0-1-8---8---8---3---8-8-8-8-8-8-8-10-8-8-8-5-3---3-3-3-3-1-0------------|
E|-3-------------------------------------------------------------------------|
C|---------------------------------------------------------------------------|
G|---------------------------------------------------------------------------|

Verse:

A|-----1---------1-0-----------1-------1-------1-0---------------------------|
E|-3-----3---3-3-----3---3-3-3-----3-3-----3-3-----3-------------------------|
C|---------------------------------------------------------------------------|
G|---------------------------------------------------------------------------|

Repeat 2 times

A|-------------0-1---1-1-1-1-3-5---5-5-5-5-8-3---3-3-3-3-1-0-----------------|
E|-3---3-3-3-3---------------------------------------------------------------|
C|---------------------------------------------------------------------------|
G|---------------------------------------------------------------------------|

Repeat 2 times

Pre-Chorus:

A|-----1-----1-----1-----1-----1-----1---3-3-3-3-1-0-------------------------|
E|-3-----3-----3-----3-----3-----3-----3-------------------------------------|
C|---------------------------------------------------------------------------|
G|---------------------------------------------------------------------------|

Chorus:

A|-------------0-1---1-1-1-1-3-5---5-5-5-5-8-3---3-3-3-3-1-0-----------------|
E|-3---3-3-3-3---------------------------------------------------------------|
C|---------------------------------------------------------------------------|
G|---------------------------------------------------------------------------|

Repeat 2 times

A|-8---8---8---3---8-8-8-8-8-8-10-8-8-8-5-3-3--------------------------------|
E|---------------------------------------------------------------------------|
C|---------------------------------------------------------------------------|
G|---------------------------------------------------------------------------|

A|---0-1-8---8---8---3---8-8-8-8-8-8-8-10-8-8-8-5-3---3-3-3-3-1-0------------|
E|-3-------------------------------------------------------------------------|
C|---------------------------------------------------------------------------|
G|---------------------------------------------------------------------------|

Interlude:

A|-------------0-1---1-1-1-1-3-5---5-5-5-5-8-3---3-3-3-3-1-0-----------------|
E|-3---3-3-3-3---------------------------------------------------------------|
C|---------------------------------------------------------------------------|
G|---------------------------------------------------------------------------|

Repeat 2 times

Pre-Chorus:

A|-----1-----1-----1-----1-----1-----1---3-3-3-3-1-0-------------------------|
E|-3-----3-----3-----3-----3-----3-----3-------------------------------------|
C|---------------------------------------------------------------------------|
G|---------------------------------------------------------------------------|

Final Chorus:

A|-8---8---8---3---8-8-8-8-8-8-10-8-8-8-5-3-3--------------------------------|
E|---------------------------------------------------------------------------|
C|---------------------------------------------------------------------------|
G|---------------------------------------------------------------------------|

A|---0-1-8---8---8---3---8-8-8-8-8-8-8-10-8-8-8-5-3---3-3-3-3-1-0------------|
E|-3-------------------------------------------------------------------------|
C|---------------------------------------------------------------------------|
G|---------------------------------------------------------------------------|

A|-------------0-1---1-1-1-1-3-5---5-5-5-5-8-3---3-3-3-3-1-0-----------------|
E|-3---3-3-3-3---------------------------------------------------------------|
C|---------------------------------------------------------------------------|
G|---------------------------------------------------------------------------|

A|-------------0-1---1-1-1-1-3-5---5-5-5-5-8-3---3-3-3-3-1-0-----------------|
E|-3---3-3-3-3-----------------------------------------------3---------------|
C|---------------------------------------------------------------------------|
G|---------------------------------------------------------------------------|

            
            
Suggest correction
Creating personal tab
Creating personal tab
You can edit any tab online and save it as your Personal.

You can edit, replace or remove any tab part or add personal notes – all changes will be seen only by you.

Personal tabs can be accessed anytime from any device, even offline.
Learn more »
Give kudos to tab author, rate the tab!
1 2 3 4 5
comments
print report bad tab
guest
You may want to rate the tab now too:
select rating
Wanna post a correction for this tab? Suggest correction