Oops, an error
Loading. Please wait.

An Ocean In Between The Waves bass

1,374 views 21 this week
no commentswrite comment
1 2 3 4 5
x 3
add to favorites
×
Save as Personal and add changes to this tab that will be seen only by you. Learn more ›
×
You can save this tab as Personal to edit and correct it or add notes. All changes will be seen only by you. Learn more »
launch autoscroll
font size
0
reset
guitar tuner
edit
Autoscroll
slow
fast
+/-
esc
set tempo
stop
Author
Difficulty
-------------------------------------------------------------------------------
                 The War On Drugs - An Ocean In Between The Waves
-------------------------------------------------------------------------------
Tabbed by: Marce09 
E-mail: Marce09Tabs (at) hotmail.com

My first tab, missing some variations in the solos but should get you on your way!
(Wanted to make it more compact but don't really know how to?!)
Enjoy this awesome song!

Tuning: Standard

Intro [0:11]:
 G||-------------|-------------|-------------|-------------||
D||-------------|-------------|-------------|-------------||
A||-10-10-10----|-10-10-10----|-10-10-10----|-10-10-10----|| 2x
E||-------------|-------------|-------------|-------------||

G||----------|----------|----------|----------||
D||----------|----------|----------|----------||
A||-8-8-8----|-8-8-8----|-8-8-8----|-8-8-8----|| 2x
E||----------|----------|----------|----------||

G||-------------|-------------|-------------|-------------||
D||-------------|-------------|-------------|-------------||
A||-10-10-10----|-10-10-10----|-10-10-10----|-10-10-10----|| 2x
E||-------------|-------------|-------------|-------------||

G||----------|----------|----------|----------||
D||----------|----------|----------|----------||
A||-8-8-8----|-8-8-8----|-8-8-8----|-8-8-8----|| 2x
E||----------|----------|----------|----------||

G||-------------|-------------|-------------|-------------||
D||-------------|-------------|-------------|-------------||
A||-10-10-10----|-10-10-10----|-10-10-10----|-10-10-10----|| 2x
E||-------------|-------------|-------------|-------------||


Verse 1 [0:40]:
G||----------|----------|----------|----------|
D||----------|----------|----------|----------|
A||-8-8-8----|-8-8-8----|-8-8-8----|-8-8-8----|
E||----------|----------|----------|----------|

G|-------------|-------------|-------------|-------------||
D|-------------|-------------|-------------|-------------||
A|-10-10-10----|-10-10-10----|-10-10-10----|-10-10-10----|| 8x
E|-------------|-------------|-------------|-------------||


Break 1 [1:26]:
G||----------|----------|----------|----------||
D||----------|----------|----------|----------||
A||-8-8-8----|-8-8-8----|-8-8-8----|-8-8-8----|| 2x
E||----------|----------|----------|----------||

G||-------------|-------------|-------------|-------------||
D||-------------|-------------|-------------|-------------||
A||-10-10-10----|-10-10-10----|-10-10-10----|-10-10-10----|| 2x
E||-------------|-------------|-------------|-------------||

G||----------|----------|----------|----------||
D||----------|----------|----------|----------||
A||-8-8-8----|-8-8-8----|-8-8-8----|-8-8-8----|| 2x
E||----------|----------|----------|----------||

G||-------------|-------------|-------------|-------------||
D||-------------|-------------|-------------|-------------||
A||-10-10-10----|-10-10-10----|-10-10-10----|-10-10-10----|| 2x
E||-------------|-------------|-------------|-------------||


Verse 2 [1:48]:
G||----------|----------|----------|----------|
D||----------|----------|----------|----------|
A||-8-8-8----|-8-8-8----|-8-8-8----|-8-8-8----|
E||----------|----------|----------|----------|

G|-------------|-------------|-------------|-------------||
D|-------------|-------------|-------------|-------------||
A|-10-10-10----|-10-10-10----|-10-10-10----|-10-10-10----|| 4x
E|-------------|-------------|-------------|-------------||

G||----------|----------|----------|----------|
D||----------|----------|----------|----------|
A||-6-6-6----|-6-6-6----|-6-6-6----|-6-6-6----|
E||----------|----------|----------|----------|

G|-------------|-------------|-------------|-------------|
D|-------------|-------------|-------------|-------------|
A|-10-10-10----|-10-10-10----|-10-10-10----|-10-10-10----|
E|-------------|-------------|-------------|-------------|

G|----------|----------|----------|----------|
D|----------|----------|----------|----------|
A|-8-8-8----|-8-8-8----|-8-8-8----|-8-8-8----|
E|----------|----------|----------|----------|

G|-------------|-------------|-------------|-------------||
D|-------------|-------------|-------------|-------------||
A|-10-10-10----|-10-10-10----|-10-10-10----|-10-10-10----|| 2x
E|-------------|-------------|-------------|-------------||


Solo [2:35]:
G|----------|----------|----------|----------|
D|----------|----------|----------|----------|
A|-8-8-8----|-8-8-8----|-8-8-8----|-8-8-8----|
E|----------|----------|----------|----------|

G|-------------|-------------|-------------|-------------|
D|-------------|-------------|-------------|-------------|
A|-10-10-10----|-10-10-10----|-10-10-10----|-10-10-10----|
E|-------------|-------------|-------------|-------------|

G|---------|---------|---------|---------|
D|---------|---------|---------|---------|
A|-8-8-8-8-|-8-8-8-8-|-8-8-8-8-|-8-8-8-8-|
E|---------|---------|---------|---------|

G|---------|---------|---------|---------|
D|---------|---------|---------|---------|
A|---------|---------|---------|---------|
E|-8-8-8-8-|-8-8-8-8-|-8-8-8-8-|-8-8-8-8-|

G|-------------|-------------|-------------|-------------|
D|-------------|-------------|-------------|-------------|
A|-------------|-------------|-------------|-------------|
E|-10-10-10-10-|-10-10-10-10-|-10-10-10-10-|-10-10-10-10-|

G|---------|---------|---------|---------|
D|---------|---------|---------|---------|
A|---------|---------|---------|---------|
E|-8-8-8-8-|-8-8-8-8-|-8-8-8-8-|-8-8-8-8-|

G|-------------|-------------|-------------|-------------|
D|-------------|-------------|-------------|-------------|
A|-13-13-13-13-|-13-13-13-13-|-10-10-10-10-|-10-10-10-10-|
E|-------------|-------------|-------------|-------------|

G|---------|---------|---------|---------|
D|---------|---------|---------|---------|
A|-8-8-8-8-|-8-8-8-8-|-6-6-6-6-|-6-6-6-6-|
E|---------|---------|---------|---------|

G|-------------|-------------|-------------|-------------|
D|-------------|-------------|-------------|-------------|
A|-10-10-10----|-10-10-10----|-10-10-10----|-10-10-10----|
E|-------------|-------------|-------------|-------------|


Break 2 [3:01]:
G||----------|----------|----------|----------|
D||----------|----------|----------|----------|
A||-8-8-8----|-8-8-8----|-8-8-8----|-8-8-8----|
E||----------|----------|----------|----------|

G|-------------|-------------|-------------|-------------||
D|-------------|-------------|-------------|-------------||
A|-10-10-10----|-10-10-10----|-10-10-10----|-10-10-10----|| 2x
E|-------------|-------------|-------------|-------------||


Verse 3 [3:13]:
G||----------|----------|----------|----------|
D||----------|----------|----------|----------|
A||-8-8-8----|-8-8-8----|-8-8-8----|-8-8-8----|
E||----------|----------|----------|----------|

G|-------------|-------------|-------------|-------------||
D|-------------|-------------|-------------|-------------||
A|-10-10-10----|-10-10-10----|-10-10-10----|-10-10-10----|| 8x
E|-------------|-------------|-------------|-------------||

G||----------|----------|----------|----------|
D||----------|----------|----------|----------|
A||-6-6-6----|-6-6-6----|-6-6-6----|-6-6-6----|
E||----------|----------|----------|----------|

G|-------------|-------------|-------------|-------------|
D|-------------|-------------|-------------|-------------|
A|-10-10-10----|-10-10-10----|-10-10-10----|-10-10-10----|
E|-------------|-------------|-------------|-------------|

G|----------|----------|----------|----------|
D|----------|----------|----------|----------|
A|-8-8-8----|-8-8-8----|-8-8-8----|-8-8-8----|
E|----------|----------|----------|----------|

G|-------------|-------------|-------------|-------------||
D|-------------|-------------|-------------|-------------||
A|-10-10-10----|-10-10-10----|-10-10-10----|-10-10-10----|| 2x
E|-------------|-------------|-------------|-------------||


Outro [4:22]:
G|----------|----------|----------|----------|
D|----------|----------|----------|----------|
A|-8-8-8----|-8-8-8----|-8-8-8----|-8-8-8----|
E|----------|----------|----------|----------|

G|-------------|-------------|-------------|-------------|
D|-------------|-------------|-------------|-------------|
A|-10-10-10----|-10-10-10----|-10-10-10----|-10-10-10----|
E|-------------|-------------|-------------|-------------|

G||---------|---------|---------|---------|
D||---------|---------|---------|---------|
A||-8-8-8-8-|-8-8-8-8-|-8-8-8-8-|-8-8-8-8-|
E||---------|---------|---------|---------|

G|---------|---------|---------|---------|
D|---------|---------|---------|---------|
A|---------|---------|---------|---------|
E|-8-8-8-8-|-8-8-8-8-|-8-8-8-8-|-8-8-8-8-|

G|-------------|-------------|-------------|-------------|
D|-------------|-------------|-------------|-------------|
A|-------------|-------------|-------------|-------------|
E|-10-10-10-10-|-10-10-10-10-|-10-10-10-10-|-10-10-10-10-|

G|---------|---------|---------|---------|
D|---------|---------|---------|---------|
A|---------|---------|---------|---------|
E|-8-8-8-8-|-8-8-8-8-|-8-8-8-8-|-8-8-8-8-|

G|-------------|-------------|-------------|-------------|
D|-------------|-------------|-------------|-------------|
A|-13-13-13-13-|-13-13-13-13-|-10-10-10-10-|-10-10-10-10-|
E|-------------|-------------|-------------|-------------|

G|---------|---------|---------|---------|
D|---------|---------|---------|---------|
A|-8-8-8-8-|-8-8-8-8-|-6-6-6-6-|-6-6-6-6-|
E|---------|---------|---------|---------|

G|-------------|-------------|-------------|-------------||
D|-------------|-------------|-------------|-------------|| Repeat
A|-10-10-10-10-|-10-10-10-10-|-10-10-10-10-|-10-10-10-10-|| Till End
E|-------------|-------------|-------------|-------------||


===============================================================================
Suggest correction
Creating personal tab
Creating personal tab
You can edit any tab online and save it as your Personal.

You can edit, replace or remove any tab part or add personal notes – all changes will be seen only by you.

Personal tabs can be accessed anytime from any device, even offline.
Learn more »
Give kudos to tab author, rate the tab!
1 2 3 4 5
comments
print report bad tab
guest
You may want to rate the tab now too:
select rating
Wanna post a correction for this tab? Suggest correction