Oops, an error
Loading. Please wait.

Copper Bullets tab

version 2
version 2

Whole song

  • In this tab you will find the closest version of t... Show more
37 views 6 this week
no commentswrite comment
1 2 3 4 5
3 more votes to show rating
add to favorites
×
Save as Personal and add changes to this tab that will be seen only by you. Learn more ›
×
You can save this tab as Personal to edit and correct it or add notes. All changes will be seen only by you. Learn more »
launch autoscroll
font size
0
reset
how to read this tab
guitar tuner
edit
Autoscroll
slow
fast
+/-
esc
set tempo
stop
Author
Difficulty
About this tab version
In this tab you will find the closest version of the song Copper Bullets by The warning, using the same tuning of the song, and hopefully the same chords played. If I'm right, this is the first tab maded. So, enjoyed it and remember that you can change any part if you feel it better. Was this info helpful? Yes No
THE WARNING - COPPER BULLETS



Hello everyone, I tried to write this tab as close to what daniela plays in the recorded song and 
in the live performances. I hope you enjoyed it and could play it. 

I recommend you to use a heavy distortion.

Tuning: Db-Ab-Db-Gb-Bb-eb  * This is a kind of Drop D Tuning but with the strings a half step down.
________________________________________________________
 /   Slide up
 \   Slide down
 ~   Vibrato
 PM  Palm mute
_________________________________________________________



[Intro - Verse]
The song begins with the verse*

eb|---------------|----------------|--------------|-----------------|(x 4)
Bb|---------------|----------------|--------------|-----------------|
Gb|---------------|----------------|--------------|-----------------|
Db|---------------|----------------|--------------|-----------------|
Ab|-----5~---5~---|-----3~---3~----|----1~---1~---|---0--1-3-1-0----|
Db|-5-5----5----5-|-3-3----3----3--|-1-1---1----1-|-0------------3~-|

[Bridge]
   B             Db/D          A             E/D
eb|-------------|-------------|-------------|-------------------------|
Bb|-------------|-------------|-------------|-------------------------|
Gb|-5-----------|-------------|-3-----------|-------------------------|
Db|-5-----------|-0--1--------|-3-----------|-3----5------------------|
Ab|-3-----------|-0--1--------|-1-----------|-3----3--/3--5--1--0-----|
Db|-------------|-0--1--------|-------------|-3-------------------3~--|

*play the chords and keep them ringing*

If you're playing with another guitar, you can combine the (Db/D) part like this:

   Db/D
eb|--------|   
Bb|-3--4---|
Gb|-2--3---|
Db|--------|
Ab|--------|
Db|--------|

[Chorus]
* The Chorus is divided in two parts with the same chords but diferent strumming *

(1)

eb|---------------|---------------|---------------|-----------------------| (x2)
Bb|---------------|---------------|---------------|-----------------------| 
Gb|---------------|---------------|-3---3-3--3----|-----------------------|
Db|-5---5-5--5----|-1---1-1--1----|-3---3-3--3----|-3---3-3--3---3-4-5----|
Ab|-5---5-5--5----|-1---1-1--1----|-1---1-1--1----|-3---3-3--3---3-4-5----|
Db|-5---5-5--5----|-1---1-1--1----|---------------|-3---3-3--3---3-4-5----|
       PM--|           PM--|           PM--|           PM--|

*The last chord is the first one of the next repetition. Keep it in mind*

(2)
eb|-------------------|-------------------|-------------------|---------------------| (x2)
Bb|-------------------|-------------------|-------------------|---------------------| 
Gb|-------------------|-------------------|-3-3-3-3-3-3-3-3---|---------------------|
Db|-5-5-5-5-5-5-5-5---|-1-1-1-1-1-1-1-1---|-3-3-3-3-3-3-3-3---|-3-3-3-3-3-3-3-4-5---|
Ab|-5-5-5-5-5-5-5-5---|-1-1-1-1-1-1-1-1---|-1-1-1-1-1-1-1-1---|-3-3-3-3-3-3-3-4-5---|
Db|-5-5-5-5-5-5-5-5---|-1-1-1-1-1-1-1-1---|-------------------|-3-3-3-3-3-3-3-4-5---|
 
eb|---------------|---------------|---------------|-----------------------| (x2)
Bb|---------------|---------------|---------------|-----------------------| 
Gb|---------------|---------------|-3---3-3--3----|-----------------------|
Db|-5---5-5--5----|-1---1-1--1----|-3---3-3--3----|-3---3-3--3---3-4-5----|
Ab|-5---5-5--5----|-1---1-1--1----|-1---1-1--1----|-3---3-3--3---3-4-5----|
Db|-5---5-5--5----|-1---1-1--1----|---------------|-3---3-3--3---3-4-5----|
       PM--|           PM--|           PM--|           PM--|
 
[Verse 2] 
eb|---------------|----------------|--------------|-----------------|(x 4)
Bb|---------------|----------------|--------------|-----------------|
Gb|---------------|----------------|--------------|-----------------|
Db|---------------|----------------|--------------|-----------------|
Ab|-----5~---5~---|-----3~----3~---|----1~---1~---|---0--1-3-1-0----|
Db|-5-5----5----5-|-3-3----3-----3-|-1-1---1----1-|-0------------3~-|
 
There's a little harmony that you can play on the third repetition of the second verse: 
 
eb|----------------------|--------------------|  *Use your clean channel and a deep reverb*
Bb|-11~~------15~--------|-11~~------15~\18~--| 
Gb|-----------------10~~-|--------------------|
Db|----------------------|--------------------|
Ab|----------------------|----~---------------|
Db|----------------------|--------------------|
 
[Chorus] 
(1) 
eb|---------------|---------------|---------------|-----------------------| (x2)
Bb|---------------|---------------|---------------|-----------------------| 
Gb|---------------|---------------|-3---3-3--3----|-----------------------|
Db|-5---5-5--5----|-1---1-1--1----|-3---3-3--3----|-3---3-3--3---3-4-5----|
Ab|-5---5-5--5----|-1---1-1--1----|-1---1-1--1----|-3---3-3--3---3-4-5----|
Db|-5---5-5--5----|-1---1-1--1----|---------------|-3---3-3--3---3-4-5----|
       PM--|           PM--|           PM--|           PM--|
 
(2) 
eb|-------------------|-------------------|-------------------|---------------------| 
Bb|-------------------|-------------------|-------------------|---------------------| 
Gb|-------------------|-------------------|-3-3-3-3-3-3-3-3---|---------------------|
Db|-5-5-5-5-5-5-5-5---|-1-1-1-1-1-1-1-1---|-3-3-3-3-3-3-3-3---|-3-3-3-3-3-3-3-4-5---|
Ab|-5-5-5-5-5-5-5-5---|-1-1-1-1-1-1-1-1---|-1-1-1-1-1-1-1-1---|-3-3-3-3-3-3-3-4-5---|
Db|-5-5-5-5-5-5-5-5---|-1-1-1-1-1-1-1-1---|-------------------|-3-3-3-3-3-3-3-4-5---|


eb|-------------------|-------------------|-------------------|---------------------| 
Bb|-------------------|-------------------|-------------------|---------------------| 
Gb|-------------------|-------------------|-3-3-3-3-3-3-3-3---|---------------------|
Db|-5-5-5-5-5-5-5-5---|-1-1-1-1-1-1-1-1---|-3-3-3-3-3-3-3-3---|-3-3-3-3-3-3-3-3-3---|
Ab|-5-5-5-5-5-5-5-5---|-1-1-1-1-1-1-1-1---|-1-1-1-1-1-1-1-1---|-3-3-3-3-3-3-3-3-3---|
Db|-5-5-5-5-5-5-5-5---|-1-1-1-1-1-1-1-1---|-------------------|-3-3-3-3-3-3-3-3-3---|
 
[Interlude] 
eb|----------------|----------------|----------------|-----------------------| (x2) 
Bb|----------------|----------------|----------------|-----------------------| 
Gb|-5--------------|-7--------------|-8--------------|-10-----------8--7--5--|
Db|-5--------------|-7--------------|-8--------------|-10-----------8--7--5--|
Ab|-3--------------|-5--------------|-6--------------|-8------------6--5--3--|
Db|----------------|----------------|----------------|-----------------------|

*Again the last chord is the first one of the next repetition*
 
[Chorus] 
eb|---------------|---------------|---------------|-------------------| 
Bb|---------------|---------------|---------------|-------------------| 
Gb|---------------|---------------|---------------|-------------------|
Db|-/5------------|-5/1-----------|-1\8-----------|-8/3~--------------|
Ab|-/5------------|-5/1-----------|-1\8-----------|-8/3~--------------|
Db|-/5------------|-5/1-----------|-1\8-----------|-8/3~----------12/-|

eb|---------------|---------------|---------------|-----------------------| 
Bb|---------------|---------------|---------------|-----------------------| 
Gb|---------------|---------------|-3---3-3--3----|-----------------------|
Db|-5---5-5--5----|-1---1-1--1----|-3---3-3--3----|-3---3-3--3---3-4-5----|
Ab|-5---5-5--5----|-1---1-1--1----|-1---1-1--1----|-3---3-3--3---3-4-5----|
Db|-5---5-5--5----|-1---1-1--1----|---------------|-3---3-3--3---3-4-5----|
       PM--|           PM--|           PM--|           PM--|


eb|-------------------|-------------------|-------------------|---------------------| 
Bb|-------------------|-------------------|-------------------|---------------------| 
Gb|-------------------|-------------------|-3-3-3-3-3-3-3-3---|---------------------|
Db|-5-5-5-5-5-5-5-5---|-1-1-1-1-1-1-1-1---|-3-3-3-3-3-3-3-3---|-3-3-3-3-3-3-3-4-5---|
Ab|-5-5-5-5-5-5-5-5---|-1-1-1-1-1-1-1-1---|-1-1-1-1-1-1-1-1---|-3-3-3-3-3-3-3-4-5---|
Db|-5-5-5-5-5-5-5-5---|-1-1-1-1-1-1-1-1---|-------------------|-3-3-3-3-3-3-3-4-5---|


eb|-------------------|-------------------|-------------------|---------------------| 
Bb|-------------------|-------------------|-------------------|---------------------| 
Gb|-------------------|-------------------|-3-3-3-3-3-3-3-3---|---------------------|
Db|-5-5-5-5-5-5-5-5---|-1-1-1-1-1-1-1-1---|-3-3-3-3-3-3-3-3---|-3-3-3-3-3-3-3-3-3---|
Ab|-5-5-5-5-5-5-5-5---|-1-1-1-1-1-1-1-1---|-1-1-1-1-1-1-1-1---|-3-3-3-3-3-3-3-3-3---|
Db|-5-5-5-5-5-5-5-5---|-1-1-1-1-1-1-1-1---|-------------------|-3-3-3-3-3-3-3-3-3---|
 
[Outro] 
eb|---------------|---------------|---------------|-----------------------| 
Bb|---------------|---------------|---------------|-----------------------| 
Gb|---------------|---------------|-3---3-3--3----|-----------------------|
Db|-5---5-5--5----|-1---1-1--1----|-3---3-3--3----|-3---3-3--3---3-4-5----|
Ab|-5---5-5--5----|-1---1-1--1----|-1---1-1--1----|-3---3-3--3---3-4-5----|
Db|-5---5-5--5----|-1---1-1--1----|---------------|-3---3-3--3---3-4-5----|
       PM--|           PM--|           PM--|           PM--|

eb|---------------|---------------|---------------|-----------------------| 
Bb|---------------|---------------|---------------|-----------------------| 
Gb|---------------|---------------|-3---3-3--3----|-----------------------|
Db|-5---5-5--5----|-1---1-1--1----|-3---3-3--3----|-3---3-3--3---3-4-5----|
Ab|-5---5-5--5----|-1---1-1--1----|-1---1-1--1----|-3---3-3--3---3-4-5----|
Db|-5---5-5--5----|-1---1-1--1----|---------------|-3---3-3--3---3-4-5----|
       PM--|           PM--|           PM--|           PM--|


Tab made by Paulo Cuevas 
If you want to see my video cover, here is the link: 
https://www.youtube.com/watch?v=ElLsv6OnQ_M



************************************

| b  Bend
| ~  Vibrato
| /  Slide up
| \  Slide down
 

************************************
Suggest correction
Creating personal tab
Creating personal tab
You can edit any tab online and save it as your Personal.

You can edit, replace or remove any tab part or add personal notes – all changes will be seen only by you.

Personal tabs can be accessed anytime from any device, even offline.
Learn more »
Give kudos to tab author, rate the tab!
1 2 3 4 5
comments
print report bad tab
guest
You may want to rate the tab now too:
select rating
Wanna post a correction for this tab? Suggest correction