Oops, an error
Loading. Please wait.

Exterminated tab

115 views 6 this week
no commentswrite comment
1 2 3 4 5
3 more votes to show rating
add to favorites
×
Save as Personal and add changes to this tab that will be seen only by you. Learn more ›
×
You can save this tab as Personal to edit and correct it or add notes. All changes will be seen only by you. Learn more »
launch autoscroll
font size
0
reset
how to read this tab
guitar tuner
edit
Autoscroll
slow
fast
+/-
esc
set tempo
stop
Author
Difficulty
About this tab version
Added tab for the solo part. Was this info helpful? Yes No
[Intro]
   G5            Eb5          C5           D5             (2x)
e|------------------------------------------------------|
B|------------------------------------------------------|
G|---------------8--8---8--8--5--5---5--5--7--7---7--7--|
D|--5--5---5--5--8--8---8--8--5--5---5--5--7--7---7--7--|
A|--5--5---5--5--6--6---6--6--3--3---3--3--5--5---5--7--|
E|--3--3---3--3-----------------------------------------|

[Verse]
G5
Everything is gray
      Eb5
All around me is decayed
C5                  D5
Darkness invades me again
G5
The blood is boiling in my veins
           Eb5
Anger is showing through my face
C5              D5
Clouding up my mind
G5
This destruction brings me pain
    Eb5
There is no other way
C5                  D5
I need to have my revenge

[Chorus]
G5
Another war is beginning
        Eb5
More blood is spilling
  C5                      D5
Another soul is been taken away

e|---------------------|
B|---------------------|
G|---------------------|
D|---------------------|
A|--5p3--5p3-----------|
E|------------6--5--3--|

G5            
Another storm is growing
Eb5
More wind is blowing
   C5                     D5
A hurricane that won't go away
                       
Till it's all exterminated

   G5            Eb5          C5           D5
e|-----------------------------------------------------------|
B|-----------------------------------------------------------|
G|---------------8--8---8--8--5--5---5--5--7--7--------------|
D|--5--5---5--5--8--8---8--8--5--5---5--5--7--7--------------|
A|--5--5---5--5--6--6---6--6--3--3---3--3--5--5--------1-----|
E|--3--3---3--3----------------------------------1--3-----3--|

[Verse]
G5
There is no escape
        Eb5
From the visions in my head
    C5                     D5
It feels like I've been in hell
G5
I won't rest until is over
            Eb5
Must put an end to this disorder
  C5                     D5
I want the light back in my life
         G5
We were supposed to help each other
       Eb5
But instead now I just wonder
C5                    D5
When will I have my revenge?

[Chorus]
G5
Another war is beginning
        Eb5
More blood is spilling
  C5                      D5
Another soul is been taken away
G5            
Another storm is growing
    Eb5
More wind is blowing
  C5                     D5
A hurricane that won't go away
                       
Till it's all exterminated

   G5            Eb5          C5           D5            
e|------------------------------------------------------|
B|------------------------------------------------------|
G|---------------8--8---8--8--5--5---5--5--7--7---7--7--|
D|--5--5---5--5--8--8---8--8--5--5---5--5--7--7---7--7--|
A|--5--5---5--5--6--6---6--6--3--3---3--3--5--5---5--7--|
E|--3--3---3--3-----------------------------------------|

[Solo]
   G5              Eb5                C5                D5
e|-----------------------------------------------------------------------|
B|-----------------------------------6-----------------------------------|
G|--------------------------------------8~--5--7--8p7p5------------------|
D|--8--8\5--5/8--8/10--10\5-5--5--8----------------------7~--5--4--5--7--|
A|-----------------------------------------------------------------------|
E|-----------------------------------------------------------------------|

   G5                                     Eb5                 C5
e|----------------------------------------------------13/15~-------------|
B|--pb15r13--11--11--13p11--13p11--13p11--13b15r13--11-------------------|
G|-----------------------------------------------------------------------|
D|------------------------------------------------------------17--17--15-|
A|-----------------------------------------------------------------------|
E|-----------------------------------------------------------------------|
                                                D5
e|-----------------------------------------------------------------------|
B|--------------------------------------15--15------16p15------16p15-----|
G|------15--15------15--17--17--15--17----------17---------17---------17-|
D|--17----------17-------------------------------------------------------|
A|-----------------------------------------------------------------------|
E|-----------------------------------------------------------------------|

e|-------------------------------------|
B|--16p15------16p15--19--19--17--19~--|
G|---------17--------------------------|
D|-------------------------------------|
A|-------------------------------------|
E|-------------------------------------|

[Chorus]
G5
Another war is beginning
        Eb5
More blood is spilling
  C5                      D5
Another soul is been taken away

e|---------------------|
B|---------------------|
G|---------------------|
D|---------------------|
A|--5p3--5p3-----------|
E|------------6--5--3--|

G5            
Another storm is growing
Eb5
More wind is blowing
   C5                     D5
A hurricane that won't go away
                       
Till it's all exterminated

   G5            Eb5          C5           D5            
e|------------------------------------------------------|
B|------------------------------------------------------|
G|---------------8--8---8--8--5--5---5--5--7--7---7--7--|
D|--5--5---5--5--8--8---8--8--5--5---5--5--7--7---7--7--|
A|--5--5---5--5--6--6---6--6--3--3---3--3--5--5---5--7--|
E|--3--3---3--3-----------------------------------------|

Till it's all exterminated

   G5            Eb5          C5           D5
e|-----------------------------------------------------------|
B|-----------------------------------------------------------|
G|---------------8--8---8--8--5--5---5--5--7--7--------------|
D|--5--5---5--5--8--8---8--8--5--5---5--5--7--7--------------|
A|--5--5---5--5--6--6---6--6--3--3---3--3--5--5--------1-----|
E|--3--3---3--3----------------------------------1--3-----3--|

e|-----------------------------------------------------------------------------------|
B|-----------------------------------------------------------------------------------|
G|-------------------------------------------------------------------------5--3------|
D|--5p3--5p3-----5--3--5p3--5p3-----5--3--5p3--5p3-----5--3--5p3--5p3------5--3--5---|
A|------------5------------------5------------------5-------------------5--------5---|
E|-----------------------------------------------------------------------------------|



************************************

| p   Pull-off
| ~   Vibrato
| /   Slide up
| \   Slide down
| r   Release
| b   Bend
| pb  Pre-bend

************************************

            
            
Suggest correction
Creating personal tab
Creating personal tab
You can edit any tab online and save it as your Personal.

You can edit, replace or remove any tab part or add personal notes – all changes will be seen only by you.

Personal tabs can be accessed anytime from any device, even offline.
Learn more »
Give kudos to tab author, rate the tab!
1 2 3 4 5
comments
print report bad tab
guest
You may want to rate the tab now too:
select rating
Wanna post a correction for this tab? Suggest correction