Oops, an error
Loading. Please wait.

Free Falling tab

version 1
version 1

Whole song

  • This is a complete tab of the album version of the song.
754 views 15 this week
no commentswrite comment
1 2 3 4 5
3 more votes to show rating
add to favorites
×
Save as Personal and add changes to this tab that will be seen only by you. Learn more ›
×
You can save this tab as Personal to edit and correct it or add notes. All changes will be seen only by you. Learn more »
launch autoscroll
font size
0
reset
how to read this tab
guitar tuner
edit
Autoscroll
slow
fast
+/-
esc
set tempo
stop
The Warning - Free Falling
(https://www.youtube.com/watch?v=wlipfTBaLII)


[Verse]

F                C#
I put my life in your hands
G#            D#
I gave you my trust
F                C#
And I believed every lie
G#               D#
That came out of your mouth
F                     C#
I'm getting soaked in my tears
G#             D#
Drowning in my fears

    F               C#              G#              D#
  PM-------------------------------------------------------------------------|
E|------------------------------------------------------------------------------|
B|------------------------------------------------------------------------------|
G|------------------------------------------------------------------------------|
D|------------------------------------------------------------------------------|
A|------------------4-4-4-4-4-4-4-4-----------------6-6-6-6-6-6-6-6-------------|
E|--1-1-1-1-1-1-1-1-----------------4-4-4-4-4-4-4-4-----------------------------|


[Chorus]

F              C#       G#     A#
I believe that we had a chance
F               C#                 G#     Bb
But it all went away with a single glance

    F               C#              G#              A#
E|-----------------------------------------------------------------------------|
B|-----------------------------------------------------------------------------|
G|-----------------------------------------------------------------------------|
D|--------------6-6--6666------------------------------------------------------|
A|--3-3--3333---4-4--4444--6-6--6666--8-8--8888--------------------------------|
E|--1-1--1111--------------4-4--4444--6-6--6666--------------------------------|

    F               C#              G#              Bb
E|-----------------------------------------------------------------------------|
B|-----------------------------------------------------------------------------|
G|-----------------------------------------------------------------------------|
D|--------------6-6--6666-------------3-3-3-3-3-3-3-3-3------------------------|
A|--3-3--3333---4-4--4444--6-6--6666--1-1-1-1-1-1-1-1-1------------------------|
E|--1-1--1111--------------4-4--4444-------------------------------------------|


[Verse]

Nothing has changed, I'm crashing through space
I'm burning up and there's nothing that can put out this flame
You killed my dreams, burned my wings
Now I'm crying and screaming and cursing, you're calling
While I'm free falling

    F               C#              G#              D#
E|-----------------------------------------------------------------------------|
B|-----------------------------------------------------------------------------|
G|-----------------------------------------------------------------------------|x3
D|-------------------6-6-6-6-6-6-6-6-------------------8-8-8-8-8-8-8-8---------|
A|--3-3-3-3-3-3-3-3--4-4-4-4-4-4-4-4--6-6-6-6-6-6-6-6--6-6-6-6-6-6-6-6---------|
E|--1-1-1-1-1-1-1-1-------------------4-4-4-4-4-4-4-4--------------------------|

You took my fantasies
Turned my world upside down
You wore me down not knowing
You were hurting me this much
Now I can't go back
There'll be no more of us

    F               C#              G#              D#
  PM-------------------------------------------------------------------------|
E|------------------------------------------------------------------------------|
B|------------------------------------------------------------------------------|
G|------------------------------------------------------------------------------|x3
D|------------------------------------------------------------------------------|
A|------------------4-4-4-4-4-4-4-4-----------------6-6-6-6-6-6-6-6-------------|
E|--1-1-1-1-1-1-1-1-----------------4-4-4-4-4-4-4-4-----------------------------|


[Chorus]

I believe that we had a chance
But it all went away with a single glance

    F               C#              G#              A#
E|-----------------------------------------------------------------------------|
B|-----------------------------------------------------------------------------|
G|-----------------------------------------------------------------------------|
D|--------------6-6--6666------------------------------------------------------|
A|--3-3--3333---4-4--4444--6-6--6666--8-8--8888--------------------------------|
E|--1-1--1111--------------4-4--4444--6-6--6666--------------------------------|

    F               C#              G#              Bb
E|-----------------------------------------------------------------------------|
B|-----------------------------------------------------------------------------|
G|-----------------------------------------------------------------------------|
D|--------------6-6--6666-------------3-3-3-3-3-3-3-3-3------------------------|
A|--3-3--3333---4-4--4444--6-6--6666--1-1-1-1-1-1-1-1-1------------------------|
E|--1-1--1111--------------4-4--4444-------------------------------------------|


[Verse]

Nothing has changed, I'm crashing through space
I'm burning up and there's nothing that can put out this flame
You killed my dreams, burned my wings
Now I'm crying and screaming and cursing, you're calling
While I'm free falling

Play 4x (Two times with the solo if you want)
    F               C#              G#              D#
E|-----------------------------------------------------------------------------|
B|-----------------------------------------------------------------------------|
G|-----------------------------------------------------------------------------|
D|-------------------6-6-6-6-6-6-6-6-------------------8-8-8-8-8-8-8-8---------|
A|--3-3-3-3-3-3-3-3--4-4-4-4-4-4-4-4--6-6-6-6-6-6-6-6--6-6-6-6-6-6-6-6---------|
E|--1-1-1-1-1-1-1-1-------------------4-4-4-4-4-4-4-4--------------------------|


[Solo] 

I believe that we had a chance

Let the chords ring
    F    C#   G#
E|------------------------------------------------------------------------------|
B|------------------------------------------------------------------------------|
G|------------------------------------------------------------------------------|
D|-------6----------------------------------------------------------------------|
A|--1----4----6-----------------------------------------------------------------|
E|--3---------4-----------------------------------------------------------------|

And nothing will change, I'm crashing through space
I'm burning up and there's nothing that can put out this flame
You killed my dreams, burned my wings
Now I'm crying and screaming and cursing, you're calling
While I'm free (Falling)

Fall (Fall, fall, free falling)
(Fall, fall, free falling)
(Fall, fall, free falling)
(Fall, fall, free falling)
All (Fall, fall, free falling)
(Fall, fall, free falling)
(Fall, fall, free falling)
Free falling

Play 3x (Two times with the solo if you want)
    F               C#              G#              D#
E|-----------------------------------------------------------------------------|
B|-----------------------------------------------------------------------------|
G|-----------------------------------------------------------------------------|
D|-------------------6-6-6-6-6-6-6-6-------------------8-8-8-8-8-8-8-8---------|
A|--3-3-3-3-3-3-3-3--4-4-4-4-4-4-4-4--6-6-6-6-6-6-6-6--6-6-6-6-6-6-6-6---------|
E|--1-1-1-1-1-1-1-1-------------------4-4-4-4-4-4-4-4--------------------------|


[Outro]

    F               C#              G#              D#
E|-----------------------------------------------------------------------------|
B|-----------------------------------------------------------------------------|
G|-----------------------------------------------------------------------------|
D|-------------------6-6-6-6-6-6-6-6-------------------8-8-8-8-8-8-8-8---------|
A|--3-3-3-3-3-3-3-3--4-4-4-4-4-4-4-4--6-6-6-6-6-6-6-6--6-6-6-6-6-6-6-6-1-------|
E|--1-1-1-1-1-1-1-1-------------------4-4-4-4-4-4-4-4------------------3-------|


***********************************
PM - Palm Mute
***********************************
Suggest correction
Creating personal tab
Creating personal tab
You can edit any tab online and save it as your Personal.

You can edit, replace or remove any tab part or add personal notes – all changes will be seen only by you.

Personal tabs can be accessed anytime from any device, even offline.
Learn more »
Give kudos to tab author, rate the tab!
1 2 3 4 5
comments
print report bad tab
guest
You may want to rate the tab now too:
select rating
Wanna post a correction for this tab? Suggest correction