Oops, an error
Loading. Please wait.

Rivers Soul tab

184 views 6 this week
2 commentsread comments
1 2 3 4 5
2 more votes to show rating
add to favorites
×
Save as Personal and add changes to this tab that will be seen only by you. Learn more ›
×
You can save this tab as Personal to edit and correct it or add notes. All changes will be seen only by you. Learn more »
launch autoscroll
font size
0
reset
how to read this tab
guitar tuner
edit
Autoscroll
slow
fast
+/-
esc
set tempo
stop
Author
Difficulty
Tom C#m

Riff 1

E|-----4-----------------4-----------------4-----------------4--------------|
B|-----4h5p4h5p4h5p4-----4h5p4h5p4h5p4-----4h5p4h5p4h5p4-----4h5p4h5p4h5p4--|
G|--6-----------------6-----------------4-----------------4-----------------|
D|--------------------------------------------------------------------------|
A|--------------------------------------------------------------------------|
E|--------------------------------------------------------------------------|

E|-----4-------------------4-----------------4-----------------------|
B|-----4h5p4h5p4h5p4-------4h5p4h5p4h5p4-----4h5p4h5p4h5p4-----------|
G|----------------------------------------4-----------------4--5--6--|
D|--7-----------------7----------------------------------------------|
A|-------------------------------------------------------------------|
E|-------------------------------------------------------------------|

************************************

| h  Hammer On
| p  Pull Off

************************************

[Riff 2]
E|--------------------------------------------------------------------------------------------|
B|--------------------------------------------------------------------------------------------|
G|-----6-----6-----6-----6-----9-----9-----9-----9--------------------------------------------|
D|-----------------------------------------------------7-----7-----7-----9-----9-----9-----9--|
A|--4-----4-----4-----4-----7-----7-----7-----7-----------------------------------------------|
E|--------------------------------------------------5-----5-----5-----7-----7-----7-----7-----|

[Riff 3]
E|--------------------------------------------------|
B|--------------------------------------------------|
G|--------------------------------------------------|
D|--------------------------------------------------|
A|--------------4-----4--6--------------6-----6--7--|
E|--5--4--5--7-----7--------7--5--7--9-----9--------|

[Riff 4]
E|-----------------------------|
B|-----------------------------|
G|-----------------------------|
D|-----------------------------|
A|--------------4-----4--6-----|
E|--5--4--5--7-----7--------7--|

[Intro]
C#m            E  
Drown yourself in the river
A           B
Bring along the other sinners
C#m            E    
Burn down with the flame

[Riff 1] 3x
E|-----4-----------------4-----------------4-----------------4--------------|
B|-----4h5p4h5p4h5p4-----4h5p4h5p4h5p4-----4h5p4h5p4h5p4-----4h5p4h5p4h5p4--|
G|--6-----------------6-----------------4-----------------4-----------------|
D|--------------------------------------------------------------------------|
A|--------------------------------------------------------------------------|
E|--------------------------------------------------------------------------|

E|-----4-------------------4-----------------4-----------------------|
B|-----4h5p4h5p4h5p4-------4h5p4h5p4h5p4-----4h5p4h5p4h5p4-----------|
G|----------------------------------------4-----------------4--5--6--|
D|--7-----------------7----------------------------------------------|
A|-------------------------------------------------------------------|
E|-------------------------------------------------------------------|

************************************

| h  Hammer On
| p  Pull Off

************************************

[Verse]

[Riff 2]
E|--------------------------------------------------------------------------------------------|
B|--------------------------------------------------------------------------------------------|
G|-----6-----6-----6-----6-----9-----9-----9-----9--------------------------------------------|
D|-----------------------------------------------------7-----7-----7-----9-----9-----9-----9--|
A|--4-----4-----4-----4-----7-----7-----7-----7-----------------------------------------------|
E|--------------------------------------------------5-----5-----5-----7-----7-----7-----7-----|

C#m               E
When I look back in my life
A            B
I regret the mistakes I made
C#m             E
Now I don’t know what I’ll find
A                B
In my search for a new way of life

C#m           E
There must be someone out there
A               B
Who understands the way I feel
C#m           E
I cannot be alone in this
A         B
Oh oh oh

[Chorus]
C#m            E
Drown yourself in the river
A              B
Bring along the other sinners
C#m            E
Burn down with the flame

[Riff 3]
E|--------------------------------------------------|
B|--------------------------------------------------|
G|--------------------------------------------------|
D|--------------------------------------------------|
A|--------------4-----4--6--------------6-----6--7--|
E|--5--4--5--7-----7--------7--5--7--9-----9--------|

C#m            E
Let the waves take control
A              B
Don’t be afraid of what’s to come
C#            E
Just go with the flow

[Riff 4]
E|-----------------------------|
B|-----------------------------|
G|-----------------------------|
D|-----------------------------|
A|--------------4-----4--6-----|
E|--5--4--5--7-----7--------7--|

             C#m
Of the rivers soul

[Riff 1]
E|-----4-----------------4-----------------4-----------------4--------------|
B|-----4h5p4h5p4h5p4-----4h5p4h5p4h5p4-----4h5p4h5p4h5p4-----4h5p4h5p4h5p4--|
G|--6-----------------6-----------------4-----------------4-----------------|
D|--------------------------------------------------------------------------|
A|--------------------------------------------------------------------------|
E|--------------------------------------------------------------------------|

E|-----4-------------------4-----------------4-----------------------|
B|-----4h5p4h5p4h5p4-------4h5p4h5p4h5p4-----4h5p4h5p4h5p4-----------|
G|----------------------------------------4-----------------4--5--6--|
D|--7-----------------7----------------------------------------------|
A|-------------------------------------------------------------------|
E|-------------------------------------------------------------------|

************************************

| h  Hammer On
| p  Pull Off

************************************

[Verse]
C#m                E
I am hearing my inner voice
A                  B
Round and round in my mind it goes
C#m                E
It’s telling me to forgive myself
A                  B
From the moments wasted and spent
C#m                E
Now I have learned from my painful past
A                  B
Not to worry about my messed up mind
C#m               E
All the lies I leave behind
A                 B
Oh oh oh

[Chorus]
C#m            E
Drown yourself in the river
A             B
Bring along the other sinners
C#m          E 
Burn down with the flame

[Riff 3]
E|--------------------------------------------------|
B|--------------------------------------------------|
G|--------------------------------------------------|
D|--------------------------------------------------|
A|--------------4-----4--6--------------6-----6--7--|
E|--5--4--5--7-----7--------7--5--7--9-----9--------|

C#m          E
Let the waves take control
A             B
Don’t be afraid of what’s to come
C#m         E
Just go with the flow

[Riff 4]
E|-----------------------------------------|
B|-----------------------------------------|
G|-----------------------------------------|
D|-----------------------------------------|
A|--------------4-----4--6--------------6--|
E|--5--4--5--7-----7--------7--5--7--9-----|

                 C#m            
I can’t see the light in your eyes
             E                  
Since your lies took over your mind
A                                  B
I know you are confused but your ways
                     C#m
Never worked for us so now you must choose
E           A         B
To win or loose

C#m            E
Drown yourself in the river
A           B
Bring along the other sinners
C#m        E
Burn down with the flame
C#m          E
Let the waves take control
A               B
Don’t be afraid of what’s to come
C#m       E
Just go with the flow

[Riff 4]
E|-----------------------------|
B|-----------------------------|
G|-----------------------------|
D|-----------------------------|
A|--------------4-----4--6-----|
E|--5--4--5--7-----7--------7--|

              C#m
Of the rivers soul



************************************

| h  Hammer-on
| p  Pull-off

************************************

            
            
Suggest correction
Creating personal tab
Creating personal tab
You can edit any tab online and save it as your Personal.

You can edit, replace or remove any tab part or add personal notes – all changes will be seen only by you.

Personal tabs can be accessed anytime from any device, even offline.
Learn more »
Give kudos to tab author, rate the tab!
1 2 3 4 5
comments
print report bad tab
2 comments total.
+1 reply
Guitar137335 170 Apr 08, 2017 11:46 AM

I think the main riff is more like this
E. 4
B. 4-5 5-4-5-4
G. 6
Etc

0 reply
Turcao 182 Apr 08, 2017 05:05 PM

Yeah, I think you're alright, I'll confirm here...

guest
You may want to rate the tab now too:
select rating
Wanna post a correction for this tab? Suggest correction