Oops, an error
Loading. Please wait.

Show Me The Light tab

58 views 9 this week
1 commentread comment
1 2 3 4 5
2 more votes to show rating
add to favorites
×
Save as Personal and add changes to this tab that will be seen only by you. Learn more ›
×
You can save this tab as Personal to edit and correct it or add notes. All changes will be seen only by you. Learn more »
launch autoscroll
font size
0
reset
how to read this tab
guitar tuner
edit
Autoscroll
slow
fast
+/-
esc
set tempo
stop
About this tab version
Listen to the song for the strumming patterns. Was this info helpful? Yes No
[Chords]
F#              D#m                           C#             F              A#m
e|---2---|      |---6---|      |x------|      |---4---|      |---1---|      |---1---| 
B|---2---|      |---7---|      |---4---|      |---6---|      |---1---|      |---2---|
G|---3---|      |---8---|  or  |---3---|      |---6---|      |---2---|      |---3---|
D|---4---|      |---8---|      |---4---|      |---6---|      |---3---|      |---3---| 
A|---4---|      |---6---|      |---1---|      |---4---|      |---3---|      |---1---| 
E|---2---|      |---6---|      |x------|      |---4---|      |---1---|      |x------| 

[Intro]
e|------------------------|------------------------|------------------------|------------------------|
B|--------6-------6-------|-----------4------------|--------6-------6-------|-----------4------------|
G|-----6-----8-------6----|--------6-------6-------|-----6-----8-------6----|--------6-------6-------|
D|--8---------------------|-----6-------------6----|--8---------------------|-----6-------------6----|
A|--8---------------------|--4---------------------|--8---------------------|--4---------------------|
E|--6---------------------|--4---------------------|--6---------------------|--4---------------------|

[Verse]
e|------------------------|------------------------|
B|--------6-------6-------|-----------4------------|
G|-----6-----8-------6----|--------6-------6-------|
D|--8---------------------|-----6-------------6----|
A|--8---------------------|--4---------------------|
E|--6---------------------|--4---------------------|

Take my pain and despair and throw it away

e|------------------------|------------------------|
B|--------6-------6-------|-----------4------------|
G|-----6-----8-------6----|--------6-------6-------|
D|--8---------------------|-----6-------------6----|
A|--8---------------------|--4---------------------|
E|--6---------------------|--4---------------------|

Let them starve by themselves let them decay we don't ne-

e|------------------------|------------------------|
B|--------6-------6-------|--------6-------6-------|
G|-----6-----8-------6----|-----6-----8-------6----|
D|--8---------------------|--8---------------------|
A|--8---------------------|--8---------------------|
E|--6---------------------|--6---------------------|

-ed              them   any-

e|------------------------|------------------------|
B|-----------4------------|------------------------|
G|--------6-------6-------|------------------------|
D|-----6-------------6----|------------------------|
A|--4---------------------|------------------------|
E|--4---------------------|------------------------|

   -more

e|------------------------|------------------------|
B|--------6-------6-------|-----------4------------|
G|-----6-----8-------6----|--------6-------6-------|
D|--8---------------------|-----6-------------6----|
A|--8---------------------|--4---------------------|
E|--6---------------------|--4---------------------|

When we crumble to the ground we'll build ourselves up

e|------------------------|------------------------|
B|--------6-------6-------|-----------4------------|
G|-----6-----8-------6----|--------6-------6-------|
D|--8---------------------|-----6-------------6----|
A|--8---------------------|--4---------------------|
E|--6---------------------|--4---------------------|

When we're lost we'll be found please don't give up all the 

e|------------------------|------------------------|
B|--------7--6------------|-----------4------------|
G|-----6----------6-------|--------6-------6-------|
D|--8----------------8----|-----6-------------6----|
A|--8---------------------|--4---------------------|
E|--6---------------------|--4---------------------|
   things             that we                  will

e|------------------------|-------------1--1--1--1--|
B|-----------4------------|-------------1--1--1--1--|
G|--------6-------6-----6-|-------------2--2--2--2--|
D|-----6-------------6----|--6----------3--3--3--3--|
A|--4---------------------|-------------3--3--3--3--|
E|--4---------------------|-------------1--1--1--1--|

   have

F#             D#m                 C#
Tell me how it feels like take off your disguise
               F
Show me the light
F#              D#m
Bring me down into your level
     F
Make me a rebel

The stealer of your 

e|------------------------|------------------------|
B|--------6-------6-------|-----------4------------|
G|-----6-----8-------6----|--------6-------6-------|
D|--8---------------------|-----6-------------6----|
A|--8---------------------|--4---------------------|
E|--6---------------------|--4---------------------| (x2)

   heart

[Verse]
e|------------------------|------------------------|
B|--------6-------6-------|-----------4------------|
G|-----6-----8-------6----|--------6-------6-------|
D|--8---------------------|-----6-------------6----|
A|--8---------------------|--4---------------------|
E|--6---------------------|--4---------------------|

Stop the wait here's your chance for me not to look back

e|------------------------|------------------------|
B|--------6-------6-------|-----------4------------|
G|-----6-----8-------6----|--------6-------6-------|
D|--8---------------------|-----6-------------6----|
A|--8---------------------|--4---------------------|
E|--6---------------------|--4---------------------|

Let's be free show the world we'll turn out right what we ne-

e|------------------------|------------------------|
B|--------6-------6-------|--------6-------6-------|
G|-----6-----8-------6----|-----6-----8-------6----|
D|--8---------------------|--8---------------------|
A|--8---------------------|--8---------------------|
E|--6---------------------|--6---------------------|

    -ed                 is what                  we

e|------------------------|------------------------|
B|-----------4------------|------------------------|
G|--------6-------6-------|------------------------|
D|-----6-------------6----|------------------------|
A|--4---------------------|------------------------|
E|--4---------------------|------------------------|

   have

e|------------------------|------------------------|
B|--------6-------6-------|-----------4------------|
G|-----6-----8-------6----|--------6-------6-------|
D|--8---------------------|-----6-------------6----|
A|--8---------------------|--4---------------------|
E|--6---------------------|--4---------------------|

The two of us, it's enough let's make our way

e|------------------------|------------------------|
B|--------6-------6-------|-----------4------------|
G|-----6-----8-------6----|--------6-------6-------|
D|--8---------------------|-----6-------------6----|
A|--8---------------------|--4---------------------|
E|--6---------------------|--4---------------------|

Let's forget yesterday start over again take me fa-

e|------------------------|------------------------|
B|--------7--6------------|-----------4------------|
G|-----6----------6-------|--------6-------6-------|
D|--8----------------8----|-----6-------------6----|
A|--8---------------------|--4---------------------|
E|--6---------------------|--4---------------------|
   -r                don't think                it

e|------------------------|-------------1--1--1--1--|
B|-----------4------------|-------------1--1--1--1--|
G|--------6-------6-----6-|-------------2--2--2--2--|
D|-----6-------------6----|--6----------3--3--3--3--|
A|--4---------------------|-------------3--3--3--3--|
E|--4---------------------|-------------1--1--1--1--|

   twice

F#             D#m                 C#
Tell me how it feels like take off your disguise
               F
Show me the light
F#              D#m
Bring me down into your level
     F
Make me a rebel
A#m            F#
Hold me please never leave
  C#              F
I need your daily poisoning
     A#m                 F#
Your words so deep cut into me
C#                       F
Whispers so loud they're deafening
A#m            F#
Hold me please never leave
  C#              F
I need your daily poisoning
     A#m                 F#
Your words so deep cut into me
C#                       F
Whispers so loud they're deafening

[Solo]
e|--11-/13--------------|--------13-\11--9--9--|----------------------|----------------9--8--|
B|----------------------|----------------------|----------------------|-------/9---11--------|
G|----------------------|----------------------|----------------------|----------------------|
D|----------------------|----------------------|----------------------|----------------------|
A|----------------------|----------------------|----------------------|----------------------|
E|----------------------|----------------------|----------------------|----------------------|

e|----------------------|----------------------|----------------------|----------------------|
B|--11--------11----\9--|--11----\6--------6---|--4----6br------------|----------------------|
G|----------------------|----------------------|----------------------|---8--6--6------------|
D|----------------------|----------------------|----------------------|----------------------|
A|----------------------|----------------------|----------------------|----------------------|
E|----------------------|----------------------|----------------------|----------------------|

e|----------------------|----------------------|----------------------|----------------------|
B|----------------------|----------------------|----------------------|------------14--------|
G|----------------------|--------/10--8--------|-------------8--------|---/8---10--------13--|
D|----------------------|--6--8----------10----|---10---11-------8----|----------------------|
A|----------------------|----------------------|----------------------|----------------------|
E|----------------------|----------------------|----------------------|----------------------|

e|----------------------|----------------------|----------------------|----------------------|
B|----------------------|-------14--16--14-----|--16br-------16-------|--14--------13--------|
G|-13-/15---15--/17--18-|----------------------|----------------------|----------------------|
D|----------------------|----------------------|----------------------|----------------------|
A|----------------------|----------------------|----------------------|----------------------|
E|----------------------|----------------------|----------------------|----------------------|

e|----------------------|
B|--11------------------|
G|----------------------|
D|----------------------|
A|----------------------|
E|----------------------|
                        F
Tell me how it feels like
F#             D#m     C# 
Tell me how it feels like

F

F#             D#m                 C#
Tell me how it feels like take off your disguise
               F
Show me the light
F#              D#m
Bring me down into your level
     F
Make me a rebel, the stealer of your
A#m                   F#
Heart (Hold me please never leave
  C#              F
I need your daily poisoning
     A#m                 F#
Your words so deep cut into me
    C#                 F
Whispers so loud)  The stealer of your 

e|------------------------|
B|--------6-------6-------|
G|-----6-----8-------6----|
D|--8---------------------|
A|--8---------------------|
E|--6---------------------|

  heart



************************************

| x   Dead note
| /   Slide up
| \   Slide down
| br  Bend release
|     
| or  

************************************

            
            
Suggest correction
Creating personal tab
Creating personal tab
You can edit any tab online and save it as your Personal.

You can edit, replace or remove any tab part or add personal notes – all changes will be seen only by you.

Personal tabs can be accessed anytime from any device, even offline.
Learn more »
Give kudos to tab author, rate the tab!
1 2 3 4 5
comments
print report bad tab
1 comment total.
0 reply
dcsixto 10 Jul 23, 2017 06:46 PM

awesome brother, thanks

guest
You may want to rate the tab now too:
select rating
Wanna post a correction for this tab? Suggest correction