Oops, an error
Loading. Please wait.

When Will We Be Married? chords

1,411 views 12 this week
no commentswrite comment
1 2 3 4 5
1 last vote to show rating
add to favorites
×
Save as Personal and add changes to this tab that will be seen only by you. Learn more ›
×
You can save this tab as Personal to edit and correct it or add notes. All changes will be seen only by you. Learn more »
launch autoscroll
font size
0
reset
transpose
0
reset
display chords
guitar tuner
edit
Autoscroll
slow
fast
+/-
esc
set tempo
stop
Author
Difficulty
Strumming
There is no strumming pattern for this song yet. and get +5 IQ
Am                                              Em
When will we be married Molly, when will we be wed? 
Am                                  Em
When will we be bedded in the same bed? 
Am                                              Em
When will we be married Molly, when will we be wed? 
Am                                  Em
When will we be bedded in the same bed? 

Am                                      Em
You huv’ your eye on Jimmy, long Jimmy Lee 
Am                                G
You huv’ your eye on Jimmy and a fine man he 
Am                                                  Em
You huv’ your eye on Jimmy but you'd better let him be 
Am                          G
Cause when ye go, Molly-o you'll be gaun wi' me 

Am                                              Em
When will we be married Molly, when will we be wed? 
Am                                  Em
When will we be bedded in the same bed? 
Am                                              Em
When will we be married Molly, when will we be wed? 
Am                                  Em
When will we be bedded in the same bed? 

Am                                        Em
You huv’ your eye on Johnny, thin Johnny Phee 
Am                                G
You huv’ your eye on Johnny and a fine man he 
Am                                    Em
You huv’ your eye on Johnny but you'd better let him be 
Am                           G
Cause when you go, Molly-o you'll be gaun wi' me 

Am                                              Em
When will we be married Molly, when will we be wed? 
Am                                  Em
When will we be bedded in the same bed? 
Am                                              Em
When will we be married Molly, when will we be wed? 
Am                                  Em
When will we be bedded in the same bed? 

Solo on guitar
   Am       G       Am        G   Em    Am       G   Em                Am  
e|--5-5-5-5-7-5-7--|--5-5-5-5-7-5-----|--5-5-5-5-7-5-7--|------------------|
B|-5-----8-------8-|-5-----8------8-5-|-5-----8-------8-|--5-7-8-----------|
G|-----------------|------------------|-----------------|-7-----7-4-4------|
D|-----------------|------------------|-----------------|------------7-5-7-|
A|-----------------|------------------|-----------------|------------------|
E|-----------------|------------------|-----------------|------------------|

or mandolin
  Am          G        Am          G   Em   Am        G     Em               Am  
E|0-5-5-5-3-5-7-5-7-3-|0-5-5-5-3-5-7-5-3-0-|0-5-5-5-3-5-7-5-7-3-|-0-2-3----------|
A|--------------------|--------------------|--------------------|5-----5-2-2-0-0-|
D|--------------------|--------------------|--------------------|-------------5--|
G|--------------------|--------------------|--------------------|----------------|

Am
I made a black bow for your pretty head 
Am                                              Em
When will we be married Molly, when will we be wed? 
Am                                     G
I made a black bow... for your bonnie head... 

Am                                              Em
When will we be married Molly, when will we be wed? 
Am                                  Em
When will we be bedded in the same bed? 
Am                                              Em
When will we be married Molly, when will we be wed? 
Am                                  Em
When will we be bedded in the same bed? 

Outro on guitar
Am / G / Am / G Em       Am / G Em / / / Am  x4

  Am        G       Am        G   Em   Am        G   Em                Am   x2
e|--5-5-5-5-7-5-7--|--5-5-5-5-7-5-----|--5-5-5-5-7-5-7--|------------------|
B|-5-----8-------8-|-5-----8------8-5-|-5-----8-------8-|--5-7-8-----------|
G|-----------------|------------------|-----------------|-7-----7-4-4------|
D|-----------------|------------------|-----------------|------------7-5-7-|
A|-----------------|------------------|-----------------|------------------|
E|-----------------|------------------|-----------------|------------------|

  Am     G    Am  G Em  Am    G Em                Am
e|-5-5-5-7--|-5-5-5-7-|-5-5-5-7--|-------------------|
B|----8---8-|----8----|----8---8-|-5-8-8-5--5-8-8-5--|
G|----------|---------|----------|--------7--------7-|
D|----------|---------|----------|-------------------|
A|----------|---------|----------|-------------------|
E|----------|---------|----------|-------------------|

   Am    G    Am  G Em  Am    G Em               Am
e|-5-5-5-7--|-5-5-5-7-|-5-5-5-7--|------------------|
B|----8---8-|----8----|----8---8-|--5-7-8-----------|
G|----------|---------|----------|-7-----7-4-4------|
D|----------|---------|----------|------------7-5-7-|
A|----------|---------|----------|------------------|
E|----------|---------|----------|------------------|

or mandolin
  Am          G        Am          G   Em   Am        G     Em                 Am x2
E|0-5-5-5-3-5-7-5-7-3-|0-5-5-5-3-5-7-5-3-0-|0-5-5-5-3-5-7-5-7-3-|-0-2-3----------|
A|--------------------|--------------------|--------------------|5-----5-2-2-0-0-|
D|--------------------|--------------------|--------------------|-------------5--|
G|--------------------|--------------------|--------------------|----------------|

   Am      G     Am    G Em  Am      G Em                Am  
E|-5-5-3-5-7-3-|-5-5-3-5-7-|-5-5-3-5-7-3-|-0-3-3-0-0-3-3-0--|
A|-------------|-----------|-------------|--------5-------5-|
D|-------------|-----------|-------------|------------------|
G|-------------|-----------|-------------|------------------|

   Am        G   Am    G Em  Am      G Em              Am  
E|-5-5-3-5-7-3-|-5-5-3-5-7-|-5-5-3-5-7-3-|-0-2-3----------|
A|-------------|-----------|-------------|5-----5-2-2-0-0-|
D|-------------|-----------|-------------|-------------5--|
G|-------------|-----------|-------------|----------------|

            
            
Suggest correction
Creating personal tab
Creating personal tab
You can edit any tab online and save it as your Personal.

You can edit, replace or remove any tab part or add personal notes – all changes will be seen only by you.

Personal tabs can be accessed anytime from any device, even offline.
Learn more »
Give kudos to tab author, rate the tab!
1 2 3 4 5
comments
print report bad tab
guest
You may want to rate the tab now too:
select rating
Wanna post a correction for this tab? Suggest correction