Oops, an error
Loading. Please wait.

Aside Bass Tab

version 1
version 1

Whole song

956 views 3 this week
3 commentsread comments
1 2 3 4 5
please rate
add to favorites
launch autoscroll
font size
0
reset
guitar tuner
Tab Pro tools
  • play this tab
  • loop segment
  • change instrument
  • show fretboard
  • metronome
×
Best way to learn
"Aside"
Autoscroll
slow
fast
+/-
esc
set tempo
stop
Difficulty
novice
G D C C  (Intro)x2

G|--------------------------------------------------------------------------|
D|--------------------------------------------------------------------------|
A|----6666633333333---------------------------------------------------------|
E|3333----------------------------------------------------------------------|

G  B  D  C  x2
Measure me in metered lines, in one decisive stare,
the time it takes to get from here to there.
My ribs that show through t-shirts and these shoes I got for free;
I'm unconsoled. I'm lonely.

G|--------------------------------------------------------------------------|
D|--------------------------------------------------------------------------|
A|------------222222222222266666666666663333333333333-----------------------|
E|333333333333--------------------------------------------------------------|

D  C  B  A
I am so much better than I used to be.

G|--------------------------------------------------------------------------|
D|--------------------------------------------------------------------------|
A|666666333333222222000000--------------------------------------------------|
E|--------------------------------------------------------------------------|


{play intro}

G  B  D  C  x2
Terrified of telephones and shopping mall, and knives,
And drowning in the pools of over lives.
Rely a bit to heavily on alcohol and irony.
Get clobbered on by courtesy,

G|--------------------------------------------------------------------------|
D|--------------------------------------------------------------------------|
A|------------222222222222266666666666663333333333333-----------------------|
E|333333333333--------------------------------------------------------------|

D  C  B  A
in love with love, and lousy poetry.

G|--------------------------------------------------------------------------|
D|--------------------------------------------------------------------------|
A|666666333333222222000000--------------------------------------------------|
E|--------------------------------------------------------------------------|

G    C    E   C
And I'm leaning on a broken fence between Past and Present tense.
And I'm losing all these stupid games that I swore I'd never play.

G|--------------------------------------------------------------------------|
D|--------------------------------------------------------------------------|
A|-------------33333333333333-------------33333333333333--------------------|
E|3333333333333--------------0000000000000----------------------------------|

E   D
but it almost feels okay.

G|--------------------------------------------------------------------------|
D|--------------------------------------------------------------------------|
A|-------------6666666666666------------------------------------------------|
E|0000000000000-------------------------------------------------------------|

{intro}

B  D  (plucky:  B  A  C )  x2
Circumnavigate this body of wonder and uncertainty.
Armed with every previous failure, and amateur cartography,

G|--------------------------------------------------------------------------|
D|--------------------------------------------------------------------------|
A|222222266666662222220000003333333-----------------------------------------|
E|--------------------------------------------------------------------------|

Hold C  (A B A G fill) D C B A 

(pause)
I breathe in deep before I spread these maps out on my bedroom floor.

G|--------------------------------------------------------------------------|
D|--------------------------------------------------------------------------|
A|333333333020-333333333020-66666666663333333333322222222200000000----------|
E|-----------3-------------3------------------------------------------------|

G    C    E   C
And I'm leaning on a broken fence between Past and Present tense.
And I'm losing all these stupid games that I swore I'd never play.

G|--------------------------------------------------------------------------|
D|--------------------------------------------------------------------------|
A|-------------33333333333333-------------33333333333333--------------------|
E|3333333333333--------------0000000000000----------------------------------|

E   D
But it feels okay.

G|--------------------------------------------------------------------------|
D|--------------------------------------------------------------------------|
A|-------------6666666666666------------------------------------------------|
E|0000000000000-------------------------------------------------------------|

G D C C x2  (with intro riff)
And I'm Leaving. Wave goodbye and I'm Losing, but I'll try,

G|--------------------------------------------------------------------------|
D|--------------------------------------------------------------------------|
A|----6666633333333---------------------------------------------------------|
E|3333----------------------------------------------------------------------|

E  C  E  C  E  C  G
With the last ways left, to remember. Sing my imperfect offering.
G|--------------------------------------------------------------------------|
D|--------------------------------------------------------------------------|
A|----------33333333333----------33333333333-----------333333333366666666666|
E|0000000000-----------0000000000-----------00000000000---------------------|
comments
We did not receive enough feedback on this tab! Please rate:
print report bad tab
1 2 3 4 5
3 comments total.
0 reply
MikeyFatStrings wrote on April 3 2008, 07:53 pm

G|--------------------------------------------------------------|
D|--------------------------------------------------------------|
A|----------------5-5-5-5-5-5-5-5-3-3-3-3-3-x-3---3-3-3-3-3-3-3-|
E|-3-3-3-3-3-3-3-3----------------------------------------------|
this is not perfect but it worked for me on stage

but nice try tho man, i think you got everything right except its a 5 not a 6
i added a mute in there just because it had a halfway descent sound

0 reply
MikeyFatStrings wrote on April 3 2008, 08:03 pm

actually everything is one fret lower to what i said and the open A string notes you just go down to E4 so it would be
G|-----------------------------------------------------------------|
D|-----------------------------------------------------------------|
A|-4-4-4-4-4-4-4-4-2-2-2-2-2-2-2-2-1-1-1-1-1-1-1-1-----------------|
E|-------------------------------------------------0-0-0-0-0-0-0-0-|

but i guess you can play it a fret higher if you find this way too hard(not that it should be) it would just make it a bit happier

0 reply
MikeyFatStrings wrote on April 3 2008, 08:16 pm

also those two parts are no the same part (i correct myself to much so i apologize)

I want to post or [tab]
guest
You may want to rate the tab now too:
select rating
Please do not post tabs as comments. Select "correction" instead!