Oops, an error
Loading. Please wait.

Left And Leaving Tab

version 1
version 1

Whole song

Interactive

23,459 views 48 this week
1 commentread comment
1 2 3 4 5
excellent!
x 12
add to favorites
launch autoscroll
font size
0
reset
how to read this tab
guitar tuner
Tab Pro tools
  • play this tab
  • loop segment
  • change instrument
  • show fretboard
  • metronome
×
Best way to learn
"Left And Leaving"
Autoscroll
slow
fast
+/-
esc
set tempo
stop
Contributor
Difficulty
intermediate
Couldnt find an accurate tab. Hope this'll do.
Listen to the song to figure out when each part comes in.

E-------------------------------------------------------------------|
B-------------------------------------------------------------------|
G--------4---------------4---------------4---------------4----------|
D----4-------4---4---4-------4---4---4-------4---4---4-------4---4--|
A--2---2---2---2----------------------------------------------------|
E------------------4---4---4---4---2---2---2---2---0---0---0---0----|
My city's still breathing...
The stain in the carpet this drink in my hand...
Memory will rust and erode into lists...
That you're relying on to lead you home


E-------------------------------------------------------------------|
B-------------------------------------------------------------------|
G--------4---------------1---------------4---------------1----------|
D----4-------4---4---4-------4---4---4-------4---4---4-------4---4--|
A------------------1---1---1---1---2---2---2---2--------------------|
E--4---4---4---4-----------------------------------0---0---0---0----|
Im Back with scars to show...
Wait for the year to drown...
Duct tape and saudered wires...
I wait in four four time...


leading to the bridge
E---------------|
B---------------|
G---------------|
D--------2------|
A----1-------1--|
E--2---2---2----|
Im trying not to wonder where you are.
'Whos left and whos leaving'.
In every birthday card i threw away.
That your relying on to lead you home.

BRIDGE
E------------------------------------------------------------------|
B------------------------------------------------------------------|
G------------------------------------------------4-----------------|
D--------4---------------4---------------4---------------4------4--|
A----2-------2---2---2-------2---2---2-------2-------2-------2-----|
E--4---4---4---4---2---2---2---2---0---0---0---0---0---0---0---0---|
All this time...
comments
print report bad tab
1 comment total.
0 reply
nebcaldwell94 wrote on November 1 2014, 11:12 pm

Just a few small changes I would make:

For the "I'm back with scars to show" part

E-------------------------------------------------------------------|
B-------------------------------------------------------------------|
G--------4---------------3---------------4---------------1----------|
D----4-------4---4---4-------4---4---4-------4---4---2-------2---2--|
A------------------1---1---1---1---2---2---2---2--------------------|
E--4---4---4---4-----------------------------------0---0---0---0----|

I want to post or [tab]
guest
You may want to rate the tab now too:
select rating
Please do not post tabs as comments. Select "correction" instead!