Oops, an error
Loading. Please wait.

Psalm For The Elks Lodge Last Call Tab

5,023 views 6 this week
no commentswrite comment
1 2 3 4 5
excellent!
x 10
add to favorites
launch autoscroll
font size
0
reset
how to read this tab
guitar tuner
Tab Pro tools
  • play this tab
  • loop segment
  • change instrument
  • show fretboard
  • metronome
×
Best way to learn
"Psalm For The Elks Lodge Last Call"
Autoscroll
slow
fast
+/-
esc
set tempo
stop
Contributor
Difficulty
novice
The Weakerthans - "Psalm For The Elks Lodge Last Call"

Standard Tuning

Intro
e|-----------------------------------------------------------------|
B|-----------------------------------------------------------------|
G|-----------------------------------------------------------------|
D|---0---0---0---0---0---0---0---0---0---0---0---0---0---0---0---0-|
A|-5---5---5---5---0---0---4---4---5---5---5---5---0---0---4---4---|
E|-----------------------------------------------------------------|

Verse 1
First time:     "Let the waitress put the chairs up..."
Second time:    "Let our talk about the ball game..."
e|-----------------------------------------------------------------|
B|-----------------------------------------------------------------|
G|-----------------------------------------------------------------|
D|---0---0---0---0---0---0---0---0---0---0---0---0---0---0---0---0-|
A|-5---5---5---5---4---4---0---0---------------------------0---0---|
E|---------------------------------3---3---3---3---2---2-----------|

First time:      "Form a picture of our leader..."
Second time:     "Like a sound we didn't notice..."
e|-----------------------------------------------------------------|
B|-----------------------------------------------------------------|
G|-----------------------------------------------------------------|
D|---0---0---0---0---0---0---0---0---0---0---0---0---0---0---0---0-|
A|-5---5---5---5---4---4---0---0---------------------------0---0---|
E|---------------------------------3---3---3---3---2---2-----------|

First time:      "Let the golden oldies station crackle..."
Second time:     "With the traffic and our heartbeats..."
e|-----------------------------------------------------------------|
B|-----------------------------------------------------------------|
G|-----------------------------------------------------------------|
D|---0---0---0---0---0---0---0---0---0---0---0---0---0---0---0---0-|
A|-----------------------------------------------------------------|
E|-3---3---3---3---5---5---5---5---2---2---2---2---3---3---3---3---|

First time:      "With a final benediction we'll hum along to..."
Second time:     "Let our hatred and affection march in the same line..."
e|---------------------------------------------------------------------|
B|---------------------------------------------------------------------|
G|---------------------------------------------------------------------|
D|-----0---0---0---0---0---0---0---0---0---0---0---0---0---0---0---0---|
A|0h2------------------------------------------------------------------|
E|---3---3---3---3---5---5---5---5---2---2---2---2---3---3---3---3-----|

First time:     "Before we say goodnight."
Second time:    "Before we say goodnight."
e|-------------------------|-|-------------------------------------|
B|-----------------------o-|-|-------------------------------------|
G|-------------------------|-|--[--Repeat song from-]--------------|
D|-----0---0---0---0-------|-|--[---the beginning---]--------------|
A|-----------------------o-|-|-------------------------------------|
E|-3/5---5---5---5---------|-|-------------------------------------|


Final Verse
e|-----------------------------------------------------------------|
B|-----------------------------------------------------------------|
G|-----------------------------------------------------------------|
D|---0---0---0---0---0---0---0---0---0---0---0---0---0---0---0---0-|
A|-5---5---5---5---0---0---4---4---5---5---5---5---0---0---4---4---|
E|-----------------------------------------------------------------|

                 "Oh protect our secret handshake once more..."
e|-----------------------------------------------------------------|
B|-----------------------------------------------------------------|
G|-----------------------------------------------------------------|
D|---0---0---0---0---0---0---0---0---0---0---0---0---0---0---0---0-|
A|-----------------------------------------------------------------|
E|-3---3---3---3---5---5---5---5---2---2---2---2---3---3---3---3---|

                 "Let the toast to abscent members..."
e|---------------------------------------------------------------------|
B|---------------------------------------------------------------------|
G|---------------------------------------------------------------------|
D|-----0---0---0---0---0---0---0---0---0---0---0---0---0---0---0---0---|
A|0h2------------------------------------------------------------------|
E|---3---3---3---3---5---5---5---5---2---2---2---2---3---3---3---3-----|

             "Before we say goodnight."
e|-----------------------------------------------------------------|
B|-----------------------------------------------------------------|
G|-----------------------------------------------------------------|
D|-----0---0---0---0-----------------------------------------------|
A|-----------------------------------------------------------------|
E|-3/5---5---5---5-------------------------------------------------|

The ending is just a repeat of material from the intro and verse.

That's it. There is a second guitar part that I couldn't tab. If someone else could 
that out, it would be awesome.
comments
print report bad tab
I want to post or [tab]
guest
You may want to rate the tab now too:
select rating
Please do not post tabs as comments. Select "correction" instead!