Oops, an error
Loading. Please wait.

Its Time To Rock Ok intro tab

version 1
version 1

Intro

Whole song

999 views 3 this week
4 commentsread comments
1 2 3 4 5
2 more votes to show rating
add to favorites
×
Save as Personal and add changes to this tab that will be seen only by you. Learn more ›
×
You can save this tab as Personal to edit and correct it or add notes. All changes will be seen only by you. Learn more »
launch autoscroll
font size
0
reset
how to read this tab
guitar tuner
edit
Autoscroll
slow
fast
+/-
esc
set tempo
stop
Author
Difficulty
this song is sick, its in Db tuning so heres the intro.

|---------------------------------------------|
|---------------------------------------------|
|-----------------------------------------1---|
|---------------3-1-------------------3-1---3-|
|---3/5-3-1-3-1-----3-----3/5-3-1-3-1---------|
|-0-------------------3-0---------------------|


let me kno what you think, im pretty sure its correct.
Suggest correction
Creating personal tab
Creating personal tab
You can edit any tab online and save it as your Personal.

You can edit, replace or remove any tab part or add personal notes – all changes will be seen only by you.

Personal tabs can be accessed anytime from any device, even offline.
Learn more »
Give kudos to tab author, rate the tab!
1 2 3 4 5
comments
print report bad tab
4 comments total. Showing first comments.
-1 reply
nfgrox312 155 Jun 08, 2007 08:08 AM

i think it's...
eb-----------------------------------|
bb-----------------------------------|
Gb-------------------------------3---|
Db----------3-5-3------------3-5---5-|
Ab---5-3-55-------5---5-3-55---------|
Db-0----------------0----------------|

when i saw them play it live i'm pretty sure they didn't use the first fret.

-1 reply
rokrdude 100 Jun 18, 2007 05:12 AM

ya that sounds better thanx

+1 reply
Still Breath 167 Dec 08, 2008 05:46 PM

Both very wrong... not as complex.
And the second guitar harmoizes half way through the verse.

eb|-------------------------------------------|
Bb|-------------------------------------------|
Gb|-------------------------------------------|
Db|---------------------------------------3---|
Ab|---3/5-3--0-3-0-3-5-3-0---3/5-3--0-3-5---5-|
Db|-0----------------------0------------------|

guest
You may want to rate the tab now too:
select rating
Wanna post a correction for this tab? Suggest correction