Oops, an error
Loading. Please wait.

Receive Acoustic tab

version 2
version 2

Whole song

1,177 views 1 this week
1 commentread comment
1 2 3 4 5
2 more votes to show rating
add to favorites
×
Save as Personal and add changes to this tab that will be seen only by you. Learn more ›
×
You can save this tab as Personal to edit and correct it or add notes. All changes will be seen only by you. Learn more »
launch autoscroll
font size
0
reset
how to read this tab
guitar tuner
edit
Autoscroll
slow
fast
+/-
esc
set tempo
stop
-------------------------------------------------------------------------------
                             Receive (Acoustic) – The Wedding
-------------------------------------------------------------------------------
Tabbed by: jamuel24
Email: jam_tecus12@hotmail.com

Tuning: Standard
Capo 7, notes relative

Chords used:
   Am Dm  F  F/G C/G  G   D
e|--0-1----1--3----3---3--2---------------------------------------------------|
B|--1-3----1--1----1---0--3---------------------------------------------------|
G|--2-2----2--2----0---0--2---------------------------------------------------|
D|--2-0----3--3----2---0--0---------------------------------------------------|
A|--0--------------3---2------------------------------------------------------|
E|---------------------3------------------------------------------------------|

There are definitely more parts involved, but I just tabbed what I thought sounded good
for this guitar part.  There are definitely errors/additions to be
made so your comments/suggestions are welcome!

Intro:
e|---------------------------------------------------------------------------|
B|------------6-5-1-1h3-1-1---------6-5-56p5-56p5-0-1------------------------|
G|-0h2--4-4s5-----------0-0h2-4-4s5------------------------------------------|
D|---------------------------------------------------------------------------|
A|---------------------------------------------------------------------------|
E|---------------------------------------------------------------------------|

Verse: I figured the chords to be Dm, Am, and F, and it is just strumming.
I think there are different options, but this is the pattern I use.
   Am              Dm
e|---0---0--0---0----1---1---1----1~---------------------------------------------|
B|----1---1---1--1----3---3---3---3~---------------------------------------------|
G|--2---2---2---2---2---2---2-----2~---------------------------------------------|
D|-----------------0---0---0------0~---------------------------------------------|
A|-0---0---0---0-----------------------------------------------------------------|
E|-------------------------------------------------------------------------------|
  Am                Dm      F/G     (Strum instead of hold)
e|---1---1---1---1----1---1---3----3-----------------------------------------|
B|----2---2---2---2----3---3---1---1-----------------------------------------|
G|--2---2---2---2----2---2---2-----2-----------------------------------------|
D|-----------------0----0---3------3-----------------------------------------|
A|-0---0---0---0-------------------------------------------------------------|
E|---------------------------------------------------------------------------|

Pre-Chorus
e|-------------------------------------------------------------------------------|
B|-------------------------------------------------------------------------------|
G|-2-22-4-5-55p4-2-22-4-5-77p5-4-------------------------------------------------|
D|--------------5----------------------------------------------------------------|
A|-------------------------------------------------------------------------------|
E|-------------------------------------------------------------------------------|

F/G         C/G  G      Am            G  C/G       F/G
It's like a fire coming down We got it, We got it now.
        C/G  G       Am         G    C/G   F/G
Burn it up, burn it red We got it, We got it.
              C/G      G    Am         G  C/G        F/G
It's like the rising of the sun We got it, We got it now.
        C/G    G      Dm
Turn it up, breath it in

Verse 2: Same, except after the rest, the chord after the rest is F, not F/G.
Chorus: Same

Bridge:
Am                                D                                      F/G
I can hear the train approaching, I hear the sound, the steel beneath
                       C    G
Calling out, “You are free!”
Am                         D                                          F/G
Oh lord a trains approaching, I hear the sound, the steel beneath
                       C     G  F/G
Calling out, “You are free!”
Then the chorus repeats, I didn’t figure out the solo at the beginning,
But the guitar picking in the background is picking the chords from the chorus

For the “We are the prisoners set free”...

F/G  C/G    G
We are, woah-oh, the prisoners set free.

Just keep repeating that.

            
            
Suggest correction
Creating personal tab
Creating personal tab
You can edit any tab online and save it as your Personal.

You can edit, replace or remove any tab part or add personal notes – all changes will be seen only by you.

Personal tabs can be accessed anytime from any device, even offline.
Learn more »
Give kudos to tab author, rate the tab!
1 2 3 4 5
comments
print report bad tab
1 comment total.
0 reply
mattp94 20 Jun 20, 2009 08:37 PM

Thanks man, great tab. Not perfect like you said - some of the other parts are missing (yet to be tabbed) but a pretty sweet job. Thumbs up!
:)

guest
You may want to rate the tab now too:
select rating
Wanna post a correction for this tab? Suggest correction