Oops, an error
Loading. Please wait.

Say Your Prayers Bass Tab

version 1
version 1

Whole song

1,399 views 1 this week
1 commentread comment
1 2 3 4 5
excellent!
x 4
add to favorites
launch autoscroll
font size
0
reset
guitar tuner
Autoscroll
slow
fast
+/-
esc
set tempo
stop
Help us to improve Ultimate-Guitar.com Take our survey!
×
Author
Difficulty
Tuning
intermediate
D A D G B E
-----------------------------------------
SAY YOUR PRAYERS – THE WEDDING – POLARITY
-----------------------------------------

Tabbed By: kstar19
Tuning: Drop D
> : play lots of times
/ : slide
h : hammer on
p : pull off

INTRO & VERSE
G|-----------------------------------|
D|-----------------------------------|
A|------------------2222222-4444-----|    x6
D|2-6666666-6666666--------------456-|

CHORUS
G|------------------------------|
D|------------------------------|
A|2>-22-0h33-3---4444-666-------|
D|-------------6>---------2>-4>-|

BRIDGE
G|-----------|
D|-----------|
A|-----2-4---|
D|66-46-6-45-|

VERSE
G|-----------------------------------|
D|-----------------------------------|
A|------------------2222222-4444-----|    x4
D|2-6666666-6666666--------------456-|

CHORUS
G|------------------------------|
D|------------------------------|
A|2>-22-0h33-3---4444-666-------|
D|-------------6>---------2>-4>-|

INTERLUDE? BRIDGE? I’M JUST A BASS PLAYER I DON”T KNOW THE NAME 
G|--------------|                          G|----------|
D|--------1-----|                          D|----------|
A|----234-------|   x7 on last end with    A|----------|
D|0h6-------345-|                          D|-6/0------|
				
G|------------------------------------|
D|--6-4----------------6-4------------|
A|------6-44-2h4-2h--------6-44-2h4p2-|   x4
D|6----------------6-6----------------|

Rest until 2:44
G|-----------|
D|-----------|
A|-----------|
D|6>--2>--0>-|
CHORUS
G|------------------------------|
D|------------------------------|
A|2>-22-0h33-3---4444-666-------|
D|-------------6>---------2>-4>-|

INTRO & VERSE
G|-----------------------------------|
D|-----------------------------------|
A|------------------2222222-4444-----|    x2
D|2-6666666-6666666--------------456-|


Suggest correction
comments
print report bad tab
1 comment total.
0 reply
TimDrums7 10 wrote on May 9 2010, 04:07 pm

Great tab, I think the bridge riff is this though


G|------------------------------------|
D|--6-4----------------6-4------------|
A|------6-44-2h4-2h--------6-44-2h4p2-| x4
D|6----------------4-6----------------|

guest
You may want to rate the tab now too:
select rating
Wanna post a correction for this tab? Suggest correction