Oops, an error
Loading. Please wait.

Say Your Prayers bass

version 2
version 2

Whole song

  • This version is from the album polarity with drop ... Show more
202 views 1 this week
no commentswrite comment
1 2 3 4 5
2 more votes to show rating
add to favorites
×
Save as Personal and add changes to this tab that will be seen only by you. Learn more ›
×
You can save this tab as Personal to edit and correct it or add notes. All changes will be seen only by you. Learn more »
launch autoscroll
font size
0
reset
guitar tuner
edit
Autoscroll
slow
fast
+/-
esc
set tempo
stop
-------------------------------------------------------------------------------
	           Say Your Prayers - The Wedding
-------------------------------------------------------------------------------

Tabbed By : T Yodes
e-mail: soccerfreak2102@hotmail.com

Tuning: Drop C#
The other bass tab for this song is pretty good but i like to do a lot of stuff all on 
the low E and A strings and not on the D and G.  I also hear things a lot
simpler than what they did.  And it is in drop D and The Wedding plays in
drop C#.  This is my interpretation of it so of course it's not like the
actual song, it's how I enjoy to jam to it.  Thats all.


(Intro)  (those are 12's not 1 2's)
F#|----------------------------------------------|  (x2)
C#|----------------------------------------------|
G#|----------------------------------------------|
C#|---7777777--7777777--9999999--121212121257----|


(Verse 1)   (again, 12's not 1 2's)                                   
F#|----------------------------------------------| (x4)
C#|----------------------------------------------|
G#|----------------------------------------------|
C#|---7777777--7777777--9999999--121212121257(\)-| (last time)


(Chorus)                                   
F#|----------------------------------------------------|
C#|----------------------------------------------------|
G#|--333(x7)--222--000(x6)--555--777-------------------|
C#|-----------------------------------333(x8)--555(x8)-| 


(Bass break, interlude)
F#|--------------------------------|
C#|--------------------------------|
G#|-------------5------------------|
C#|--7-5-7-10-7---7-5-5-5----------|


(Verse 2)   (again, 12's not 1 2's)                                   
F#|----------------------------------------------| (x4)
C#|----------------------------------------------|
G#|----------------------------------------------|
C#|---7777777--7777777--9999999--121212121257(/)-| (last time)


(Chorus)                                   
F#|----------------------------------------------------|
C#|----------------------------------------------------|
G#|--333(x7)--222--000(x6)--555--777-------------------|
C#|-----------------------------------333(x8)--555(x8)-| 


(Bridge)                                   
F#|--------------------------------| (x7)
C#|--------------------------------|
G#|--------------------------------|
C#|--7-10-11-12-13-5-555-(7/5/3/)--|  (last time)


F#|---------------------------------------------| (x3)
C#|---------------------------------------------|
G#|--0-12-10-7-5-5-3-5-3---0-12-10-7-5-5-3-5-3--|
C#|----------------------5----------------------|


I like to just throw a little harmonic in here and then I 
just scream along with them while she rings out. :)
F#|-------|
C#|-------|
G#|--12#--|
C#|-------|


F#|--------------------------------|
C#|--------------------------------|
G#|--000(x8)-----------------------|
C#|-----------333(x8)--0-----------|


(Chorus)                                   
F#|----------------------------------------------------|
C#|----------------------------------------------------|
G#|--333(x7)--222--000(x6)--555--777-------------------|
C#|-----------------------------------333(x8)--555(x8)-|


(Outro)  (And for the third time, those are 12's not 1 2's)
F#|----------------------------------------------|  (x2)
C#|----------------------------------------------|
G#|----------------------------------------------|
C#|---7777777--7777777--9999999--121212121257----|



So yeah, I think that's kinda right, but like I said before, 
that's my interpretation.  Let me know what ya think.  Peace easy jammin squeezy.

Oh, and you can play the bridge as follows

(Bridge)                                   
F#|--------------------------------| (x7)
C#|--------------------------------|
G#|-----3-4-5-6--------------------|
C#|--7----------5-555-(7/5/3/)-----| (last time)  


F#|---------------------------------------------| (x3)
C#|----7-5-----------------7-5------------------|
G#|--0-----7-5-5-3-5-3---0-----7-5-5-3-5-3------|
C#|--------------------5------------------------|

            
            
Suggest correction
Creating personal tab
Creating personal tab
You can edit any tab online and save it as your Personal.

You can edit, replace or remove any tab part or add personal notes – all changes will be seen only by you.

Personal tabs can be accessed anytime from any device, even offline.
Learn more »
Give kudos to tab author, rate the tab!
1 2 3 4 5
comments
print report bad tab
guest
You may want to rate the tab now too:
select rating
Wanna post a correction for this tab? Suggest correction