Oops, an error
Loading. Please wait.
We have Chord Pro version of Cant Feel My Face.
It's the closest thing you can get to the original song and it has interactive parts. Check out the tab »
×

Cant Feel My Face chords

version 3
version 3

Whole song

Interactive

292,503 views 573 this week
4 commentsread comments
1 2 3 4 5
x 31
add to favorites
×
Save as Personal and add changes to this tab that will be seen only by you. Learn more ›
×
You can save this tab as Personal to edit and correct it or add notes. All changes will be seen only by you. Learn more »
launch autoscroll
font size
0
reset
transpose
0
reset
display chords
guitar tuner
edit
Autoscroll
slow
fast
+/-
esc
set tempo
stop
Author
Difficulty
Strumming
There is no strumming pattern for this song yet. and get +5 IQ
[Intro]

G F Am


[Verse]

        G                                  F
And I know she'll be the death of me, at least we'll both be numb.
             Am
And she'll always get the best of me, the worst is yet to come.
         G                                 F
But at least we'll both be beautiful and stay forever young.
        Am
This I know, yeah, this I know.


[Pre-Chorus]

                   G       F   
She told me "Don't worry about it”.
                    Am
She told me "Don't worry no more”.
                  G         F
We both knew we can't go without it.
                   Am                  
She told me you'll never be in love oh oh oooh.


[Chorus]

(Bass Line Part with Power Chords)

e|----------------|----------------|----------------|----------------|
B|----------------|----------------|----------------|----------------|
G|----------------|----------------|----------------|----------------|
D|--5--5--5-------|--3--3--3-------|--7--7--7--5----|--7--7--7-------|  x2
A|--5--5--5------3|--3--3--3------3|--7--7--7--5----|--7--7--7-------|
E|--3--3--3--3-5--|--1--1--1--1-3--|--5--5--5--3----|--5--5--5--5-7-8|
    G  G  G          F  F  F          Am Am Am G       Am Am Am 
     

G                                    F        Am        G   Am 
I can't feel my face when I'm with you, but I love it, but I love it.
G                                    F        Am        G   Am 
I can't feel my face when I'm with you, but I love it, but I love it.


[Verse]

       G                                  F
And I know she'll be the death of me, at least we'll both be numb.
            Am
And she'll always get the best of me, the worst is yet to come.
         G                     F
All the misery was necessary when we're deep in love.
       Am
This I know, girl, this I know.


[Pre-Chorus]

                   G       F   
She told me "Don't worry about it”.
               Am
She told me "Don't worry no more”.
                G            F
We both knew we can't go without it.
                   Am                  
She told me you'll never be in love oh oh oooh.


[Chorus]

(Bass Line Part with Power Chords)

e|----------------|----------------|----------------|----------------|
B|----------------|----------------|----------------|----------------|
G|----------------|----------------|----------------|----------------|
D|--5--5--5-------|--3--3--3-------|--7--7--7--5----|--7--7--7-------|  x4
A|--5--5--5------3|--3--3--3------3|--7--7--7--5----|--7--7--7-------|
E|--3--3--3--3-5--|--1--1--1--1-3--|--5--5--5--3----|--5--5--5--5-7-8|
    G  G  G          F  F  F          Am Am Am G       Am Am Am 

G                                    F        Am        G   Am 
I can't feel my face when I'm with you, but I love it, but I love it.
G                                    F        Am        G   Am 
I can't feel my face when I'm with you, but I love it, but I love it.
G                                    F        Am        G   Am 
I can't feel my face when I'm with you, but I love it, but I love it.
G                                    F        Am        G   Am 
I can't feel my face when I'm with you, but I love it, but I love it.


[Interlude]

G F Am


[Pre-Chorus]

                   G       F   
She told me "Don't worry about it”.
               Am
She told me "Don't worry no more”.
                G            F
We both knew we can't go without it.
                   Am                  
She told me you'll never be in love oh oh oooh.


[Chorus]

(Bass Line Part with Power Chords)

e|----------------|----------------|----------------|----------------|
B|----------------|----------------|----------------|----------------|
G|----------------|----------------|----------------|----------------|
D|--5--5--5-------|--3--3--3-------|--7--7--7--5----|--7--7--7-------|  x4
A|--5--5--5------3|--3--3--3------3|--7--7--7--5----|--7--7--7-------|
E|--3--3--3--3-5--|--1--1--1--1-3--|--5--5--5--3----|--5--5--5--5-7-8|
    G  G  G          F  F  F          Am Am Am G       Am Am Am 

G                                    F        Am        G   Am 
I can't feel my face when I'm with you, but I love it, but I love it.
G                                    F        Am        G   Am 
I can't feel my face when I'm with you, but I love it, but I love it.
G                                    F        Am        G   Am 
I can't feel my face when I'm with you, but I love it, but I love it.
G                                    F        Am        G   Am 
I can't feel my face when I'm with you, but I love it, but I love it.

I can’t feel my fa...


[Outro]

G F Am

(You can use the chorus bass line for this section)

            
            
Suggest correction
Creating personal tab
Creating personal tab
You can edit any tab online and save it as your Personal.

You can edit, replace or remove any tab part or add personal notes – all changes will be seen only by you.

Personal tabs can be accessed anytime from any device, even offline.
Learn more »
comments
print report bad tab
4 comments total. Showing first comments.
-1 reply
mate_balsa 10 Dec 21, 2015 07:00 PM

That's shit man, suscribe to my channel las aventuras de los broncesitos, I upload mlg no copyright

0 reply
EmilyWY 25 Jul 20, 2017 11:16 PM

THis sounds really good, im just not so sure about the tab, but i really really enjoyed it thanks.

guest
You may want to rate the tab now too:
select rating
Wanna post a correction for this tab? Suggest correction