Oops, an error
Loading. Please wait.

Party Monster Chords

version 2
version 2

Whole song

  • Includes chords and lead melodies.
  • This version requires no Capo.
3,919 views 30 this week
no commentswrite comment
1 2 3 4 5
2 more votes to show rating
add to favorites
launch autoscroll
font size
0
reset
transpose
0
reset
display chords
guitar tuner
Autoscroll
slow
fast
+/-
esc
set tempo
stop
Author
Difficulty
About this tab version
Includes chords and lead melodies. Was this info helpful? Yes No
Strumming Is this strumming pattern correct? Yes No
Whole Song 77 bpm
1
&
2
&
3
&
4
&
5
&
6
&
7
&
8
&
Listen
The Weeknd "Party Monster"

Standard tuning. Corrections and additions welcome!

[Note] feel free to play simpler version of the listed chords (i.e. D#m, C# and B). 
I tried to keep the overall harmony of the chords and lead melody. 

[Intro]
e|----------------|----------------|----------------|----------------|
B|----------------|----------------|----------------|----------------|
G|----------------|--------------8-|----------------|--------------8-| 
D|--8-9-----8-9---|--8-9-----8-9---|--8-9-----8-9---|--8-9-----8-9---|
A|6-----6-6-----6-|6-----6-6-------|6-----6-6-----6-|6-----6-6-------|
E|----------------|----------------|----------------|----------------|
  
[Bridge]
D#m 
I'm good, I'm good, I'm great
C# 
Know its been a while, now I'm mixing up the drink
B    
I just need a girl who gon' really understand
C# 
I just need a girl who gon' really understand
D#m 
I'm good, I'm good, I'm great
C# 
Know its been a while, now I'm mixing up the drink
B    
I just need a girl who gon' really understand
C# 
I just need a girl who gon' really understand

[Verse]

e|--6-7-----6-7---|--6-7----6-7-11-|--6-7-----6-7---|--6-7----6-7-11-|
B|----------------|----------------|----------------|----------------| Lead melody shifts up
G|8-----8-8-----8-|8-----8-8------8|8-----8-8-----8-|8-----8-8------8| an octave during the 
D|----------------|----------------|----------------|----------------| Verse and Hook sections
A|----------------|----------------|----------------|----------------|
E|----------------|----------------|----------------|----------------|

D#m
And I've seen her get richer in the pole
C# 
I've seen her, I knew she had to know
B    
I've seen her take down that tequila
C# 
Down by the liter, I knew I had to meet her
D#m
Ooh, she mine, ooh girl, bump and grind
C#
Ooh, she mine, ooh girl, bump a line
B
Angelina, lips like Angelina
C#
Like Selena, ass shaped like Selena

[Hook]
D#m
Got up, thank the lord for the day
C#
Woke up by a girl, I don't even know her name
B
Woke up by a girl, I don't even know her name
C#
(Woke up by a girl, I don't even know her name)
        D#m
Got up, thank the lord for the day
C#
Woke up by a girl, I don't even know her name
B
Woke up by a girl, I don't even know her name
C#
(Woke up by a girl, I don't even know her name)

[Bridge]

e|--------------------------------|--------------------------------|
B|--------------------------------|--------------------------------|
G|--------------------------------|--------------------------------|
D|--------------------------------|--------------------------------|
A|6-------9-------8---------------|8-------9-8-9-8-6---------------|
E|------------------------9-------|--------------------------------|
                                                                    X2                             
e|--------------------------------|--------------------------------|
B|--------------------------------|--------------------------------|
G|--------------------------------|--------------------------------|
D|8-------6-----------------------|--------------------------------|
A|----------------8---------------|8-------9-8-9-8-6---------------|
E|------------------------9-------|--------------------------------|

D#m 
I'm good, I'm good, I'm great
D#m 
Know its been a while, now I'm mixing up the drink
C# 
I just need a girl who gon' really understand
D#m 
I just need a girl who gon' really understand
D#m 
I'm good, I'm good, I'm great
D#m 
Know its been a while, now I'm mixing up the drink
C# 
I just need a girl who gon' really understand
D#m 
I just need a girl who gon' really understand

[Verse]
                      D#m
I've been poppin', just took three in a row
C# 
I'm down to do it again, I'm on a roll
B    
I've seen him outside tryna reach her
C# 
You tryna leave him, you said I'm the reason
D#m 
Tell me lies, ooh girl, tell me lies
C# 
Say you're mine, I'm yours for the night
B    
I'm the realest, she said I'm the realest
C# 
Head be genius, dick game be the meanest

[Hook]
D#m 
Got up, thank the lord for the day
C# 
Woke up by a girl, I don't even know her name
B    
Woke up by a girl, I don't even know her name
C# 
(Woke up by a girl, I don't even know her name)
        D#m 
Got up, thank the lord for the day
C# 
Woke up by a girl, I don't even know her name
B    
Woke up by a girl, I don't even know her name
C# 
(Woke up by a girl, I don't even know her name)

[Break]
D#m 
C# 
B    
C# 

[Verse]
D#m 
Got up, thank the lord for the day
D#m 
Woke up by a girl, I don't even know her name
C# 
Bitches in my new spot, crowdin' up my space
D#m 
Had to check the safe, check the dresser for my chains
D#m 
Got up, thank the lord for the day
D#m 
Woke up by a girl, I don't even know her name
C# 
Bitches in my new spot, crowdin' up my space
D#m 
Had to check the safe, check the dresser for my chains

[Interlude]
N.C.
Paranoid (Paranoid)
N.C.
Paranoid (All paranoid)
N.C.
Paranoid (All paranoid)
N.C.
But I see something in you (You're paranoid)
N.C.
Paranoid (Paranoid)
N.C.
Paranoid (All paranoid)
N.C.
Paranoid (All paranoid)
N.C.
But I see something in you
N.C.
(I see something in you)

[Outro]
D#m 
Got up, thank the lord for the day
C# 
Woke up by a girl, I don't even know her name
B    
Woke up by a girl, I don't even know her name
C# 
Woke up, woke up by a girl, I don't even know her name
D#m 
Got up, thank the lord for the day
C# 
Woke up by a girl, I don't even know her name
B    
Woke up by a girl, I don't even know her name
C# 
Woke up, woke up by a girl, I don't even know her name
N.C.
You're paranoid
Suggest correction
Give kudos to tab author, rate the tab!
1 2 3 4 5
comments
print report bad tab
guest
You may want to rate the tab now too:
select rating
Wanna post a correction for this tab? Suggest correction