Oops, an error
Loading. Please wait.

Same Old Song Bass Tab

4,118 views 15 this week
1 commentread comment
1 2 3 4 5
x 3
add to favorites
launch autoscroll
font size
0
reset
guitar tuner
Autoscroll
slow
fast
+/-
esc
set tempo
stop
Help us to improve Ultimate-Guitar.com Take our survey!
×
Author
Difficulty
novice
-------------------------------------------------------------------------------
                             Same Old Song - The Weeknd
-------------------------------------------------------------------------------
Tabbed by: Antoniyo55
E-mail: ajt350z@yahoo.com

Tuning: Standard

G|---------------------------------------------------------------------------|
D|---------------------------------------------------------------------------|
A|---------------------------------------------------------------------------|
E|-8-8----8-10-11-10-8-6--4-4---3-3-2~~~-------------------------------------|

G|---------------------------------------------------------------------------|
D|---------------------------------------------------------------------------|
A|---------------------------------------------------------------------------|
E|-8-8----8-10-11-10-8-6--4-4---3-3-2~~~-------------------------------------|

G|---------------------------------------------------------------------------|
D|---------------------------------------------------------------------------|
A|---------------------------------------------------------------------------|
E|-8-8----8-10-11-10-8-6--4-4---3-3-2~~~-------------------------------------|

G|---------------------------------------------------------------------------|
D|---------------------------------------------------------------------------|
A|---------------------------------------------------------------------------|
E|-8-8----8-10-11-10-8-6--4-4---3-3-2~~~-------------------------------------|

I know theres another part to the song where the bass gets lower. 
You'd probably get closer with a 5 string, but i just got a 4 so i make do with what I got.
repeat the whole song


| /  slide up
| \  slide down
| h  hammer-on
| p  pull-off
| ~  vibrato
| +  harmonic
| x  Mute note
===============================================================================
Suggest correction
Give kudos to tab author, rate the tab!
1 2 3 4 5
comments
print report bad tab
1 comment total.
0 reply
Antoniyo55 398 Nov 29, 2012 02:57 PM

E|-8-8----8-10-11-10-8-6--4-4--4-4-3~~~-----

play that instead of whats up there.. my fault my bad

guest
You may want to rate the tab now too:
select rating
Wanna post a correction for this tab? Suggest correction