Oops, an error
Loading. Please wait.

Shameless solo tab

version 1
version 1

Solo

Whole song

Interactive

2,287 views 30 this week
no commentswrite comment
1 2 3 4 5
1 last vote to show rating
add to favorites
×
Save as Personal and add changes to this tab that will be seen only by you. Learn more ›
×
You can save this tab as Personal to edit and correct it or add notes. All changes will be seen only by you. Learn more »
launch autoscroll
font size
0
reset
how to read this tab
guitar tuner
edit
Autoscroll
slow
fast
+/-
esc
set tempo
stop
Author
All credit to figuring this solo out goes to LONNY EAGLETON on YouTube. I've merely transcribed what he
was saying and playing in his LESSON VIDEO. Please check it out for an excellent demonstration of fingering
and rhythm, as well as a breakdown of the two shred sections; it's incredibly helpful.

Fingerings used in the video are also transcribed below each line.


[Solo]

e|-------9--6--6----------------------------------------------------------------------6--6-------------|
B|----------------7-----9--9--7--9--9--7~~-9p7h9p7h9p7h9p7h9p7h9p7--7-----------------------7----------|
G|-------------------8-------------------------------------------------8--8--6--6--------------8-------|
D|-----------------------------------------------------------------------------------------------------|
A|---------------------------------------------------------------------------------9-------------------|
E|-2~~~------------------------------------------------------------------------------------------------|

   2     4  1  1  2  3  4  4  2  4  4  2   4p2h4p2..~~(grad. dip)~~ 2  3  3  1  1  4  1  1  2  3


{Shred Section 1}

e|---------------11h14t16p7h11t16p7h11t16p7h11t18p14------t19p14------t19p14------t18p14p11----|
B|--------9h12h14-----------------------------------h12h16------h12h16------h12h16---------12--|
G|---------------------------------------------------------------------------------------------|
D|-9h11h13-------------------------------------------------------------------------------------|
A|---------------------------------------------------------------------------------------------|
E|---------------------------------------------------------------------------------------------|
                                                                                                
   1 2 4   1 3 4   1 4 t   1 4 t  1 4 t    1 4 t  2  1  4  t  2  1  4  t  2  1  4  t  4  1 2

                          {Sweep} {/Shred Section 1}

e|--------------------------23p19-------4-----------------------------------------------------------9-|
B|-12h14h16-12h14h16-12h14-------19------4----------12b14br12\\---------------------------------9h12--|
G|---------------------------------20-----4----------------------------------8h11----------8h11-------|
D|-----------------------------------21----4---------------------------9h11-----------9h11------------|
A|------------------------------------------6--------------------9h11--------------11-----------------|
E|-------------------------------------------7p4~~~~--------------------------------------------------|
                                                                                                         
   1  2  4  1  2  4  1  2   4  1 1 2 3  111134 1     3           1 3   1 3   1 4   4  2 4  1 4  1 4 1  


e|-----------------------------------------------------------------------16-21b23-23br21p19-----19-19-|
B|-14b16-16br14p12------12-12-14b16------------------------------------19------------------21-21------|
G|----------------13-13----------------18b20-20br18p16------16-16-18h20-------------------------------|
D|----------------------------------------------------18-18-------------------------------------------|
A|----------------------------------------------------------------------------------------------------|
E|----------------------------------------------------------------------------------------------------|
                                                                                                       
   3     3      1 2  2  1  1  3        3     3      1 3  3  1  1  1  3 2 1  3     3      1 3  3 2  2


{Shred Section 2; Sweep}                   {/Shred Section 2} [/Solo]

e|-----16h21p16---------------------------------------------------------------------------------------|
B|---17--------17----17p16----------------------------------------------------------------------------|
G|-18------------18-------18--------------------------------------------------------------------------|
D|-----------------18-------18------------------------------------------------------------------------|
A|----------------------------19-18-16\14h16~~~-------------------------------------------------------|
E|----------------------------------------------------------------------------------------------------|
                                                  
   3 2 1  4  1 2 3 3 2  1 3 3 4  3  1  1  3


************************************

| h   Hammer-on
| p   Pull-off
| t   Tapping
| b   Bend
| br  Bend release
| /   Slide up
| \   Slide down
| ~   Tremolo Bar Dip

************************************

Don't be intimidated, just practice like crazy and good luck!
-JY



            
            
Suggest correction
Creating personal tab
Creating personal tab
You can edit any tab online and save it as your Personal.

You can edit, replace or remove any tab part or add personal notes – all changes will be seen only by you.

Personal tabs can be accessed anytime from any device, even offline.
Learn more »
Give kudos to tab author, rate the tab!
1 2 3 4 5
comments
print report bad tab
guest
You may want to rate the tab now too:
select rating
Wanna post a correction for this tab? Suggest correction