Oops, an error
Loading. Please wait.

Shameless tab

version 2
version 2

Whole song

Interactive

2,326 views 9 this week
no commentswrite comment
1 2 3 4 5
1 last vote to show rating
add to favorites
×
Save as Personal and add changes to this tab that will be seen only by you. Learn more ›
×
You can save this tab as Personal to edit and correct it or add notes. All changes will be seen only by you. Learn more »
launch autoscroll
font size
0
reset
how to read this tab
guitar tuner
edit
Autoscroll
slow
fast
+/-
esc
set tempo
stop
-------------------------------------------------------------------------------
                             Shameless - The Weeknd
-------------------------------------------------------------------------------
Tabbed by: Anonymous Guitar Player
E-mail: ...

Tuning: Standard
Capo: 4th
Info: This tab has two was to play, after doing a little experimenting with what other people shared, I found
other ways to play the song. The tab shows the chord fingerings. The way it's played here is played throughout 
the song, but there are more advanced ways to play this. It starts over after Asus2, so go back to the E string
once you're done with the bass note there.
Chords: Em, Cmaj7, Asus2

Fingerings:  Em     Cmaj7    Asus2
e|---------------------------------------------------------------------------|
B|---------------------------------------------------------------------------|
G|-----------------------------2---------------------------------------------|
D|------------2-------2--------2---------------------------------------------|
A|------------2-------3--------x---------------------------------------------|
E|--------------------x------------------------------------------------------|

Fingerpicking. I prefer that since I was taught that way.
  Em                     Cmaj7  Asus7                             
e|---------------------------------------------------------------------------|
B|---------------------------------------------------------------------------|
G|-----0-------0-------0-----0-------2-------2-------2---0h2---0h2-----------|
D|-----2-------2-------2-----2-------2-------2-------2---0h2---0h2-----------|
A|-----------------------3-3---0-0-0---0-0-0---0-0-0---0-----0---------------|
E|-0-0---0-0-0---0-0-0-------------------------------------------------------|

************************************

| /   slide up
| \   slide down
| h   hammer-on
| p   pull-off
| ~   vibrato
| +   harmonic
| x   Mute note
| b   Bend
| pb  Pre-bend
| br  Bend release
| pbr Pre-bend release
| brb Bend release bend

************************************

            
            
Suggest correction
Creating personal tab
Creating personal tab
You can edit any tab online and save it as your Personal.

You can edit, replace or remove any tab part or add personal notes – all changes will be seen only by you.

Personal tabs can be accessed anytime from any device, even offline.
Learn more »
Give kudos to tab author, rate the tab!
1 2 3 4 5
comments
print report bad tab
guest
You may want to rate the tab now too:
select rating
Wanna post a correction for this tab? Suggest correction