Oops, an error
Loading. Please wait.

Six Feet Under Chords

version 1
version 1

Whole song

  • Includes chords and lead keyboard melody.
  • Version with Capo and includes bridge subtle chang... Show more
2,590 views 57 this week
no commentswrite comment
1 2 3 4 5
x 3
add to favorites
launch autoscroll
font size
0
reset
transpose
0
reset
simplify chords
display chords
guitar tuner
×
Best way to learn
"Six Feet Under"
Autoscroll
slow
fast
+/-
esc
set tempo
stop
Author
Difficulty
About this tab version
Includes chords and lead keyboard melody. Was this info helpful? Yes No
The Weeknd
"Six Feet Under"

[Intro]
  F#m                                      Bm
e|----------------9-9-----------------9-9-|----------------9-9-----------------9-9-|
B|------9-9-10-10-----------9-9-10-10-----|------9-9-10-10-----------9-9-10-10-----|
G|11-11---------------11-11---------------|11-11---------------11-11---------------|
D|----------------------------------------|----------------------------------------|
A|----------------------------------------|----------------------------------------|
E|----------------------------------------|----------------------------------------|

  F#m                                      C#m
e|----------------9-9-----------------9-9-|----------------9-9----------------12-12|
B|------9-9-10-10-----------9-9-10-10-----|------9-9-10-10-----------9-9-10-10-----|
G|11-11---------------11-11---------------|11-11---------------11-11---------------|
D|----------------------------------------|----------------------------------------|
A|----------------------------------------|----------------------------------------|
E|----------------------------------------|----------------------------------------|

[Verse]
F#m
Ask around about her
Bm
She don't get emotional
F#m
Kill off all her feelings
C#m
That's why she ain't approachable
F#m
She know her pussy got a fanbase
Bm
A couple niggas with a suitcase
F#m
Suit and tie niggas who play roleplay
C#m
When it comes to money she play no games

[Pre-Hook]
F#m
She lick it up just like a candy
Bm
She wanna make them leave their family
F#m
She trying to live a life so fancy
C#m
She wanna pull up in a Bentley
F#m
She ain't got time for lovin'
Bm
Louis Vuitton her husband
F#m
She rather die in lusting
C#M
She rather die in the club, till she

[Hook]
F#m
Six feet under she gon' get that fucking paper
Bm
Six feet under she gon' get that fucking paper
F#m
Six feet under she gon' get that fucking paper
C#m
You know how she get down, pop it for a check now
F#m
Six feet under, six, six feet under
Bm
Six feet under, six, six feet under
F#m
Six feet under she gon' kill me for that paper
C#m
Not the type to fuck around, gonna turn that ass around

[Verse]
F#m
She don't depend on anybody
Bm
Know just what to do with her own body
F#m
Counting all that money like a hobby
C#m
She don't give a fuck about nobody
F#m
And she got her whole crew poppin'
Bm
And she bend it over like she got no back bone
F#m
Got a couple niggas blinging up a trap phone
C#m
She don't need nobody waiting back home, she got it

[Pre-Hook]
F#m
She lick it up just like a candy
Bm
She wanna make them leave their family
F#m
She trying to live a life so fancy
C#m
She wanna pull up in a Bentley
F#m
She ain't got time for lovin'
Bm
Louis Vuitton her husband
F#m
She rather die in lusting
C#M
She rather die in the club, till she

[Hook]
F#m
Six feet under she gon' get that fucking paper
Bm
Six feet under she gon' get that fucking paper
F#m
Six feet under she gon' get that fucking paper
C#m
You know how she get down, pop it for a check now
F#m
Six feet under, six, six feet under
Bm
Six feet under, six, six feet under
F#m
Six feet under she gon' kill me for that paper
C#m
Not the type to fuck around, gonna turn that ass around

[Post-Hook]
F#m
Gonna turn that ass around
Bm
Oh murder, oh murder
F#m
Gonna turn that ass around
C#m
Oh murder, oh murder

[Bridge]
F#m                 Bm
Real love's hard to find
                       F#m
So she don't waste her time
                       C#m
So she don't waste her time, oooh
F#m                      Bm
You ain't gon' catch her crying
                        F#m
She ain't gon' lose her mind
                        C#m
She ain't gon' lose her mind, till she...

[Outro]
F#m
Six feet under she gon' kill me for that paper (Till she)
Bm
Six feet under she gon' kill me for that paper (Till she)
F#m
Six feet under she gon' kill me for the paper
C#m
Not the type to fuck around, gonna turn that ass around
Suggest correction
Give kudos to tab author, rate the tab!
1 2 3 4 5
comments
print report bad tab
guest
You may want to rate the tab now too:
select rating
Wanna post a correction for this tab? Suggest correction